  0
SECTION
  2
HEADER
  9
$ACADVER
  1
AC1009
  9
$INSBASE
 10
0
 20
0
  9
$EXTMIN
 10
-106.764
 20
217.8059999999999
  9
$EXTMAX
 10
103.236
 20
514.806
  9
$LIMMIN
 10
-106.764
 20
217.8059999999999
  9
$LIMMAX
 10
103.236
 20
514.806
  9
$VIEWCTR
 10
10
 20
10
  9
$VIEWSIZE
 40
10
  9
$SNAPMODE
 70
0
  9
$SNAPUNIT
 10
1
 20
1
  9
$SNAPBASE
 10
0
 20
0
  9
$SNAPANG
 50
0
  9
$SNAPSTYLE
 70
0
  9
$SNAPISOPAIR
 70
0
  9
$GRIDMODE
 70
0
  9
$GRIDUNIT
 10
0
 20
0
  9
$ORTHOMODE
 70
0
  9
$REGENMODE
 70
1
  9
$FILLMODE
 70
1
  9
$QTEXTMODE
 70
0
  9
$DRAGMODE
 70
2
  9
$LTSCALE
 40
1
  9
$OSMODE
 70
0
  9
$ATTMODE
 70
1
  9
$TEXTSIZE
 40
3.5
  9
$TRACEWID
 40
0.5
  9
$TEXTSTYLE
  7
STANDARD
  9
$CLAYER
  8
0
  9
$CELTYPE
  6
BYLAYER
  9
$CECOLOR
 62
256
  9
$DIMSCALE
 40
1
  9
$DIMASZ
 40
0.18
  9
$DIMEXO
 40
0.0625
  9
$DIMDLI
 40
0.38
  9
$DIMRND
 40
0
  9
$DIMDLE
 40
0
  9
$DIMEXE
 40
0.18
  9
$DIMTP
 40
0
  9
$DIMTM
 40
0
  9
$DIMTXT
 40
0.18
  9
$DIMCEN
 40
0.09
  9
$DIMTSZ
 40
0
  9
$DIMTOL
 70
0
  9
$DIMLIM
 70
0
  9
$DIMTIH
 70
1
  9
$DIMTOH
 70
1
  9
$DIMSE1
 70
0
  9
$DIMSE2
 70
0
  9
$DIMTAD
 70
0
  9
$DIMZIN
 70
0
  9
$DIMBLK
  1

  9
$DIMASO
 70
1
  9
$DIMSHO
 70
1
  9
$DIMPOST
  1

  9
$DIMAPOST
  1

  9
$DIMALT
 70
0
  9
$DIMALTD
 70
2
  9
$DIMALTF
 40
25.4
  9
$DIMLFAC
 40
1
  9
$DIMTOFL
 70
0
  9
$DIMTVP
 40
0
  9
$DIMTIX
 70
0
  9
$DIMSOXD
 70
0
  9
$DIMSAH
 70
0
  9
$DIMBLK1
  1

  9
$DIMBLK2
  1

  9
$DIMSTYLE
  2
*UNNAMED
  9
$DIMCLRD
 70
0
  9
$DIMCLRE
 70
0
  9
$DIMCLRT
 70
0
  9
$DIMTFAC
 40
1
  9
$DIMGAP
 40
0.09
  9
$LUNITS
 70
2
  9
$LUPREC
 70
4
  9
$AXISMODE
 70
0
  9
$AXISUNIT
 10
0
 20
0
  9
$SKETCHINC
 40
0.1
  9
$FILLETRAD
 40
2
  9
$AUNITS
 70
0
  9
$AUPREC
 70
0
  9
$MENU
  1
ACAD
  9
$ELEVATION
 40
0
  9
$THICKNESS
 40
0
  9
$VIEWDIR
 10
0
 20
0
 30
1
  9
$LIMCHECK
 70
0
  9
$BLIPMODE
 70
1
  9
$CHAMFERA
 40
0
  9
$CHAMFERB
 40
0
  9
$FASTZOOM
 70
1
  9
$SKPOLY
 70
0
  9
$ANGBASE
 50
0
  9
$ANGDIR
 70
0
  9
$PDMODE
 70
0
  9
$PDSIZE
 40
0
  9
$PLINEWID
 40
0
  9
$COORDS
 70
2
  0
ENDSEC
  0
SECTION
  2
TABLES
  0
TABLE
  2
DIMSTYLE
 70
0
  0
ENDTAB
  0
TABLE
  2
LTYPE
 70
9
  0
LTYPE
  2
CONTINUOUS
 70
64
  3
Solid line
 72
65
 73
0
 40
0
  0
LTYPE
  2
BORDER
 70
64
  3
__ __ . __ __ .
 72
65
 73
6
 40
13.67763157894737
 49
3.907894736842107
 49
-1.953947368421053
 49
3.907894736842107
 49
-1.953947368421053
 49
0
 49
-1.953947368421053
  0
LTYPE
  2
CENTER
 70
64
  3
____ _ ____ _
 72
65
 73
4
 40
15.63157894736843
 49
9.769736842105267
 49
-1.953947368421053
 49
1.953947368421053
 49
-1.953947368421053
  0
LTYPE
  2
DASHDOT
 70
64
  3
__ . __ . __ .
 72
65
 73
4
 40
7.815789473684213
 49
3.907894736842107
 49
-1.953947368421053
 49
0
 49
-1.953947368421053
  0
LTYPE
  2
DASHED
 70
64
  3
__ __ __ __ __
 72
65
 73
2
 40
5.86184210526316
 49
3.907894736842107
 49
-1.953947368421053
  0
LTYPE
  2
DIVIDE
 70
64
  3
__ . . __ . . 
 72
65
 73
6
 40
9.769736842105267
 49
3.907894736842107
 49
-1.953947368421053
 49
0
 49
-1.953947368421053
 49
0
 49
-1.953947368421053
  0
LTYPE
  2
DOT
 70
64
  3
..............
 72
65
 73
4
 40
3.907894736842107
 49
0
 49
-1.953947368421053
 49
0
 49
-1.953947368421053
  0
LTYPE
  2
HIDDEN
 70
64
  3
_ _ _ _ _ _ _
 72
65
 73
2
 40
2.93092105263158
 49
1.953947368421053
 49
-0.9769736842105267
  0
LTYPE
  2
PHANTOM
 70
64
  3
_____ _ _ _____ _ _ 
 72
65
 73
6
 40
19.53947368421053
 49
9.769736842105267
 49
-1.953947368421053
 49
1.953947368421053
 49
-1.953947368421053
 49
1.953947368421053
 49
-1.953947368421053
  0
ENDTAB
  0
TABLE
  2
LAYER
 70
4
  0
LAYER
  2
SCHRIFTFELD
 70
0
 62
7
  6
CONTINUOUS
  0
LAYER
  2
1
 70
0
 62
7
  6
CONTINUOUS
  0
LAYER
  2
0
 70
0
 62
7
  6
CONTINUOUS
  0
ENDTAB
  0
TABLE
  2
STYLE
 70
4
  0
STYLE
  2
STANDARD
 70
0
 40
0
 41
1
 50
0
 71
0
 42
3.5
  3
txt
  4

  0
STYLE
  2
SIMPLEX
 70
0
 40
0
 41
1
 50
0
 71
0
 42
3.5
  3
simplex
  4

  0
STYLE
  2
COMPLEX
 70
0
 40
0
 41
1
 50
0
 71
0
 42
3.5
  3
complex
  4

  0
STYLE
  2
ITALIC
 70
0
 40
0
 41
1
 50
0
 71
0
 42
3.5
  3
italic
  4

  0
ENDTAB
  0
TABLE
  2
VIEW
 70
0
  0
ENDTAB
  0
ENDSEC
  0
SECTION
  2
BLOCKS
  0
BLOCK
  8
1
  2
*X0
 70
1
 10
0
 20
0
 30
0
  0
LINE
  8
1
 62
211
 10
-2.331784947992515
 20
240.0644196427561
 30
0
 11
-2.238318579433791
 21
240.1578860113147
 31
0
  0
LINE
  8
1
 62
211
 10
-2.331784947992521
 20
239.9229982865187
 30
0
 11
-2.096897223196481
 21
240.1578860113147
 31
0
  0
LINE
  8
1
 62
211
 10
-2.331784947992526
 20
239.7815769302814
 30
0
 11
-1.955475866959171
 21
240.1578860113147
 31
0
  0
LINE
  8
1
 62
211
 10
-2.331784947992531
 20
239.6401555740441
 30
0
 11
-1.814054510721862
 21
240.1578860113147
 31
0
  0
LINE
  8
1
 62
211
 10
-2.331784947992537
 20
239.4987342178068
 30
0
 11
-1.672633154484553
 21
240.1578860113147
 31
0
  0
LINE
  8
1
 62
211
 10
-2.331784947992542
 20
239.3573128615695
 30
0
 11
-1.531211798247243
 21
240.1578860113147
 31
0
  0
LINE
  8
1
 62
211
 10
-2.331784947992547
 20
239.2158915053322
 30
0
 11
-1.389790442009934
 21
240.1578860113147
 31
0
  0
LINE
  8
1
 62
211
 10
-2.331784947992553
 20
239.0744701490949
 30
0
 11
-1.248369085772624
 21
240.1578860113147
 31
0
  0
LINE
  8
1
 62
211
 10
-2.331784947992558
 20
238.9330487928575
 30
0
 11
-1.106947729535315
 21
240.1578860113147
 31
0
  0
LINE
  8
1
 62
211
 10
-2.331784947992563
 20
238.7916274366202
 30
0
 11
-0.9655263732980053
 21
240.1578860113147
 31
0
  0
LINE
  8
1
 62
211
 10
-2.331784947992569
 20
238.6502060803829
 30
0
 11
-0.8241050170606957
 21
240.1578860113147
 31
0
  0
LINE
  8
1
 62
211
 10
-2.331784947992574
 20
238.5087847241456
 30
0
 11
-0.6826836608233862
 21
240.1578860113147
 31
0
  0
LINE
  8
1
 62
211
 10
-2.331784947992579
 20
238.3673633679083
 30
0
 11
-0.5814811458217068
 21
240.1176671700788
 31
0
  0
LINE
  8
1
 62
211
 10
-2.331784947992585
 20
238.225942011671
 30
0
 11
-0.5814811458216957
 21
239.9762458138416
 31
0
  0
LINE
  8
1
 62
211
 10
-2.33178494799259
 20
238.0845206554336
 30
0
 11
-0.5814811458216846
 21
239.8348244576043
 31
0
  0
LINE
  8
1
 62
211
 10
-2.331784947992595
 20
237.9430992991963
 30
0
 11
-0.5814811458216735
 21
239.693403101367
 31
0
  0
LINE
  8
1
 62
211
 10
-2.331784947992601
 20
237.801677942959
 30
0
 11
-0.5814811458216624
 21
239.5519817451297
 31
0
  0
LINE
  8
1
 62
211
 10
-2.331784947992606
 20
237.6602565867217
 30
0
 11
-0.5814811458216513
 21
239.4105603888924
 31
0
  0
LINE
  8
1
 62
211
 10
-2.331784947992611
 20
237.5188352304844
 30
0
 11
-0.5814811458216402
 21
239.2691390326551
 31
0
  0
LINE
  8
1
 62
211
 10
-2.331784947992617
 20
237.3774138742471
 30
0
 11
-0.5814811458216291
 21
239.1277176764178
 31
0
  0
LINE
  8
1
 62
211
 10
-2.331784947992622
 20
237.2359925180097
 30
0
 11
-0.581481145821618
 21
238.9862963201805
 31
0
  0
LINE
  8
1
 62
211
 10
-2.331784947992627
 20
237.0945711617724
 30
0
 11
-0.5814811458216069
 21
238.8448749639433
 31
0
  0
LINE
  8
1
 62
211
 10
-2.331784947992633
 20
236.9531498055351
 30
0
 11
-0.5814811458215958
 21
238.703453607706
 31
0
  0
LINE
  8
1
 62
211
 10
-2.331784947992638
 20
236.8117284492978
 30
0
 11
-0.5814811458215847
 21
238.5620322514687
 31
0
  0
LINE
  8
1
 62
211
 10
-2.331784947992643
 20
236.6703070930605
 30
0
 11
-0.5814811458215736
 21
238.4206108952314
 31
0
  0
LINE
  8
1
 62
211
 10
-2.331784947992649
 20
236.5288857368232
 30
0
 11
-0.5814811458215625
 21
238.2791895389941
 31
0
  0
LINE
  8
1
 62
211
 10
-2.331784947992654
 20
236.3874643805858
 30
0
 11
-0.5814811458215514
 21
238.1377681827568
 31
0
  0
LINE
  8
1
 62
211
 10
-2.331784947992659
 20
236.2460430243485
 30
0
 11
-0.5814811458215403
 21
237.9963468265195
 31
0
  0
LINE
  8
1
 62
211
 10
-2.331784947992665
 20
236.1046216681112
 30
0
 11
-0.5814811458215292
 21
237.8549254702822
 31
0
  0
LINE
  8
1
 62
211
 10
-2.33178494799267
 20
235.9632003118739
 30
0
 11
-0.5814811458215181
 21
237.713504114045
 31
0
  0
LINE
  8
1
 62
211
 10
1.87164659141119
 20
240.0252104950403
 30
0
 11
2.004322107685504
 21
240.1578860113147
 31
0
  0
LINE
  8
1
 62
211
 10
-2.331784947992675
 20
235.8217789556366
 30
0
 11
-0.581481145821507
 21
237.5720827578077
 31
0
  0
LINE
  8
1
 62
211
 10
1.621047948158682
 20
239.6331904955505
 30
0
 11
2.145743463922814
 21
240.1578860113147
 31
0
  0
LINE
  8
1
 62
211
 10
-2.331784947992681
 20
235.6803575993993
 30
0
 11
-0.5814811458214959
 21
237.4306614015704
 31
0
  0
LINE
  8
1
 62
211
 10
1.370449304906174
 20
239.2411704960607
 30
0
 11
2.287164820160124
 21
240.1578860113147
 31
0
  0
LINE
  8
1
 62
211
 10
-2.331784947992686
 20
235.5389362431619
 30
0
 11
-0.5814811458214848
 21
237.2892400453331
 31
0
  0
LINE
  8
1
 62
211
 10
1.119850661653667
 20
238.8491504965709
 30
0
 11
2.428586176397433
 21
240.1578860113147
 31
0
  0
LINE
  8
1
 62
211
 10
-2.331784947992691
 20
235.3975148869246
 30
0
 11
-0.4594150971851872
 21
237.2698847377321
 31
0
  0
LINE
  8
1
 62
211
 10
0.8692520184011587
 20
238.4571304970811
 30
0
 11
2.570007532634743
 21
240.1578860113147
 31
0
  0
LINE
  8
1
 62
211
 10
-2.331784947992697
 20
235.2560935306873
 30
0
 11
-0.3179937409478777
 21
237.2698847377321
 31
0
  0
LINE
  8
1
 62
211
 10
0.6186533751486509
 20
238.0651104975913
 30
0
 11
2.711428888872053
 21
240.1578860113147
 31
0
  0
LINE
  8
1
 62
211
 10
-2.331784947992702
 20
235.11467217445
 30
0
 11
-0.1765723847105682
 21
237.2698847377321
 31
0
  0
LINE
  8
1
 62
211
 10
0.3680547318961431
 20
237.6730904981015
 30
0
 11
2.852850245109362
 21
240.1578860113147
 31
0
  0
LINE
  8
1
 62
211
 10
-2.331784947992707
 20
234.9732508182127
 30
0
 11
-0.03515102847325866
 21
237.2698847377321
 31
0
  0
LINE
  8
1
 62
211
 10
0.1174560886436353
 20
237.2810704986117
 30
0
 11
2.994271601346672
 21
240.1578860113147
 31
0
  0
LINE
  8
1
 62
211
 10
-2.331784947992713
 20
234.8318294619754
 30
0
 11
0.1062703277640509
 21
237.2698847377321
 31
0
  0
LINE
  8
1
 62
211
 10
-2.331784947992718
 20
234.690408105738
 30
0
 11
3.135692957583982
 21
240.1578860113147
 31
0
  0
LINE
  8
1
 62
211
 10
-2.331784947992723
 20
234.5489867495007
 30
0
 11
3.277114313821291
 21
240.1578860113147
 31
0
  0
LINE
  8
1
 62
211
 10
-2.331784947992729
 20
234.4075653932634
 30
0
 11
3.418535670058601
 21
240.1578860113147
 31
0
  0
LINE
  8
1
 62
211
 10
-2.331784947992734
 20
234.2661440370261
 30
0
 11
3.559957026295911
 21
240.1578860113147
 31
0
  0
LINE
  8
1
 62
211
 10
-2.331784947992739
 20
234.1247226807888
 30
0
 11
3.70137838253322
 21
240.1578860113147
 31
0
  0
LINE
  8
1
 62
211
 10
-2.331784947992745
 20
233.9833013245515
 30
0
 11
3.84279973877053
 21
240.1578860113147
 31
0
  0
LINE
  8
1
 62
211
 10
-0.4540492604976927
 20
235.7196156558092
 30
0
 11
3.98422109500784
 21
240.1578860113147
 31
0
  0
LINE
  8
1
 62
211
 10
-2.33178494799275
 20
233.8418799683141
 30
0
 11
-0.5814811458217122
 21
235.5921837704853
 31
0
  0
LINE
  8
1
 62
211
 10
-0.3126279042604064
 20
235.7196156558092
 30
0
 11
4.080533426004479
 21
240.1127769860742
 31
0
  0
LINE
  8
1
 62
211
 10
-2.331784947992755
 20
233.7004586120768
 30
0
 11
-0.5814811458217122
 21
235.450762414248
 31
0
  0
LINE
  8
1
 62
211
 10
-0.1712065480231201
 20
235.7196156558091
 30
0
 11
3.7862777619738
 21
239.6770999658061
 31
0
  0
LINE
  8
1
 62
211
 10
-2.331784947992761
 20
233.5590372558395
 30
0
 11
-0.5814811458217122
 21
235.3093410580107
 31
0
  0
LINE
  8
1
 62
211
 10
-0.02978519178583383
 20
235.7196156558091
 30
0
 11
3.492022097943121
 21
239.2414229455381
 31
0
  0
LINE
  8
1
 62
211
 10
-2.331784947992766
 20
233.4176158996022
 30
0
 11
-0.5814811458217122
 21
235.1679197017734
 31
0
  0
LINE
  8
1
 62
211
 10
0.1108263037387366
 20
235.7188057950968
 30
0
 11
3.197766433912442
 21
238.8057459252701
 31
0
  0
LINE
  8
1
 62
211
 10
-2.331784947992771
 20
233.2761945433649
 30
0
 11
-0.5814811458217122
 21
235.0264983455361
 31
0
  0
LINE
  8
1
 62
211
 10
0.1661705270718929
 20
235.6327286621926
 30
0
 11
2.903510769881763
 21
238.3700689050021
 31
0
  0
LINE
  8
1
 62
211
 10
-2.331784947992777
 20
233.1347731871276
 30
0
 11
-0.5814811458217122
 21
234.8850769892987
 31
0
  0
LINE
  8
1
 62
211
 10
0.2215147504050493
 20
235.5466515292885
 30
0
 11
2.609255105851084
 21
237.9343918847341
 31
0
  0
LINE
  8
1
 62
211
 10
-2.331784947992782
 20
232.9933518308902
 30
0
 11
-0.5814811458217122
 21
234.7436556330614
 31
0
  0
LINE
  8
1
 62
211
 10
0.2768589737382057
 20
235.4605743963843
 30
0
 11
2.314999441820405
 21
237.4987148644661
 31
0
  0
LINE
  8
1
 62
211
 10
-2.331784947992787
 20
232.8519304746529
 30
0
 11
-0.5814811458217122
 21
234.6022342768241
 31
0
  0
LINE
  8
1
 62
211
 10
0.332203197071362
 20
235.3744972634801
 30
0
 11
2.020743777789725
 21
237.0630378441981
 31
0
  0
LINE
  8
1
 62
211
 10
-2.194010124160993
 20
232.8482839422474
 30
0
 11
-0.5814811458217122
 21
234.4608129205868
 31
0
  0
LINE
  8
1
 62
211
 10
0.3875474204045184
 20
235.288420130576
 30
0
 11
1.726488113759046
 21
236.6273608239301
 31
0
  0
LINE
  8
1
 62
211
 10
-2.052588767923683
 20
232.8482839422474
 30
0
 11
-0.5814811458217122
 21
234.3193915643495
 31
0
  0
LINE
  8
1
 62
211
 10
0.4428916437376748
 20
235.2023429976718
 30
0
 11
1.679995728297817
 21
236.4394470822317
 31
0
  0
LINE
  8
1
 62
211
 10
-1.911167411686373
 20
232.8482839422474
 30
0
 11
-0.5814811458217122
 21
234.1779702081122
 31
0
  0
LINE
  8
1
 62
211
 10
0.4982358670708311
 20
235.1162658647676
 30
0
 11
1.73708413146237
 21
236.355114129159
 31
0
  0
LINE
  8
1
 62
211
 10
-1.769746055449064
 20
232.8482839422474
 30
0
 11
-0.5814811458217122
 21
234.0365488518748
 31
0
  0
LINE
  8
1
 62
211
 10
0.5535800904039875
 20
235.0301887318635
 30
0
 11
1.794172534626923
 21
236.2707811760862
 31
0
  0
LINE
  8
1
 62
211
 10
-1.628324699211754
 20
232.8482839422474
 30
0
 11
-0.5814811458217122
 21
233.8951274956375
 31
0
  0
LINE
  8
1
 62
211
 10
0.6089243137371438
 20
234.9441115989593
 30
0
 11
1.851260937791476
 21
236.1864482230135
 31
0
  0
LINE
  8
1
 62
211
 10
-1.486903342974445
 20
232.8482839422474
 30
0
 11
-0.5814811458217122
 21
233.7537061394002
 31
0
  0
LINE
  8
1
 62
211
 10
0.6642685370703002
 20
234.8580344660551
 30
0
 11
1.908349340956029
 21
236.1021152699407
 31
0
  0
LINE
  8
1
 62
211
 10
-1.345481986737135
 20
232.8482839422474
 30
0
 11
-0.5814811458217122
 21
233.6122847831629
 31
0
  0
LINE
  8
1
 62
211
 10
0.7196127604034566
 20
234.771957333151
 30
0
 11
1.965437744120581
 21
236.0177823168679
 31
0
  0
LINE
  8
1
 62
211
 10
-1.204060630499826
 20
232.8482839422474
 30
0
 11
-0.5814811458217122
 21
233.4708634269256
 31
0
  0
LINE
  8
1
 62
211
 10
0.7749569837366129
 20
234.6858802002468
 30
0
 11
2.022526147285134
 21
235.9334493637952
 31
0
  0
LINE
  8
1
 62
211
 10
-1.062639274262517
 20
232.8482839422474
 30
0
 11
-0.5814811458217122
 21
233.3294420706883
 31
0
  0
LINE
  8
1
 62
211
 10
0.8303012070697693
 20
234.5998030673426
 30
0
 11
2.079614550449687
 21
235.8491164107224
 31
0
  0
LINE
  8
1
 62
211
 10
-0.9212179180252071
 20
232.8482839422474
 30
0
 11
-0.5814811458217122
 21
233.1880207144509
 31
0
  0
LINE
  8
1
 62
211
 10
0.8856454304029256
 20
234.5137259344385
 30
0
 11
2.13670295361424
 21
235.7647834576497
 31
0
  0
LINE
  8
1
 62
211
 10
-0.7797965617878976
 20
232.8482839422474
 30
0
 11
-0.5814811458217122
 21
233.0465993582136
 31
0
  0
LINE
  8
1
 62
211
 10
0.940989653736082
 20
234.4276488015343
 30
0
 11
2.193791356778792
 21
235.6804505045769
 31
0
  0
LINE
  8
1
 62
211
 10
-0.638375205550588
 20
232.8482839422474
 30
0
 11
-0.5814811458217122
 21
232.9051780019763
 31
0
  0
LINE
  8
1
 62
211
 10
0.9963338770692384
 20
234.3415716686301
 30
0
 11
2.250879759943345
 21
235.5961175515041
 31
0
  0
LINE
  8
1
 62
211
 10
1.051678100402395
 20
234.255494535726
 30
0
 11
2.307968163107898
 21
235.5117845984314
 31
0
  0
LINE
  8
1
 62
211
 10
1.107022323735551
 20
234.1694174028218
 30
0
 11
2.36505656627245
 21
235.4274516453586
 31
0
  0
LINE
  8
1
 62
211
 10
1.162366547068708
 20
234.0833402699176
 30
0
 11
2.422144969437003
 21
235.3431186922859
 31
0
  0
LINE
  8
1
 62
211
 10
1.217710770401864
 20
233.9972631370135
 30
0
 11
2.479233372601556
 21
235.2587857392131
 31
0
  0
LINE
  8
1
 62
211
 10
1.273054993735021
 20
233.9111860041093
 30
0
 11
2.536321775766108
 21
235.1744527861403
 31
0
  0
LINE
  8
1
 62
211
 10
1.328399217068177
 20
233.8251088712051
 30
0
 11
2.593410178930661
 21
235.0901198330676
 31
0
  0
LINE
  8
1
 62
211
 10
1.383743440401334
 20
233.739031738301
 30
0
 11
2.650498582095214
 21
235.0057868799948
 31
0
  0
LINE
  8
1
 62
211
 10
1.43908766373449
 20
233.6529546053968
 30
0
 11
2.707586985259766
 21
234.9214539269221
 31
0
  0
LINE
  8
1
 62
211
 10
1.494431887067647
 20
233.5668774724926
 30
0
 11
2.764675388424319
 21
234.8371209738493
 31
0
  0
LINE
  8
1
 62
211
 10
1.549776110400803
 20
233.4808003395885
 30
0
 11
2.821763791588872
 21
234.7527880207765
 31
0
  0
LINE
  8
1
 62
211
 10
1.605120333733959
 20
233.3947232066843
 30
0
 11
2.878852194753424
 21
234.6684550677038
 31
0
  0
LINE
  8
1
 62
211
 10
1.660464557067116
 20
233.3086460737802
 30
0
 11
2.935940597917977
 21
234.584122114631
 31
0
  0
LINE
  8
1
 62
211
 10
1.715808780400272
 20
233.222568940876
 30
0
 11
2.99302900108253
 21
234.4997891615583
 31
0
  0
LINE
  8
1
 62
211
 10
1.771153003733429
 20
233.1364918079718
 30
0
 11
3.050117404247082
 21
234.4154562084855
 31
0
  0
LINE
  8
1
 62
211
 10
1.826497227066585
 20
233.0504146750677
 30
0
 11
3.107205807411635
 21
234.3311232554127
 31
0
  0
LINE
  8
1
 62
211
 10
1.881841450399742
 20
232.9643375421635
 30
0
 11
3.164294210576188
 21
234.24679030234
 31
0
  0
LINE
  8
1
 62
211
 10
1.937185673732898
 20
232.8782604092593
 30
0
 11
3.22138261374074
 21
234.1624573492672
 31
0
  0
LINE
  8
1
 62
211
 10
2.048630562958168
 20
232.8482839422474
 30
0
 11
3.278471016905293
 21
234.0781243961945
 31
0
  0
LINE
  8
1
 62
211
 10
2.190051919195485
 20
232.8482839422474
 30
0
 11
3.335559420069846
 21
233.9937914431217
 31
0
  0
LINE
  8
1
 62
211
 10
2.331473275432803
 20
232.8482839422474
 30
0
 11
3.392647823234398
 21
233.9094584900489
 31
0
  0
LINE
  8
1
 62
211
 10
2.47289463167012
 20
232.8482839422474
 30
0
 11
3.449736226398951
 21
233.8251255369762
 31
0
  0
LINE
  8
1
 62
211
 10
2.614315987907437
 20
232.8482839422474
 30
0
 11
3.506824629563503
 21
233.7407925839034
 31
0
  0
LINE
  8
1
 62
211
 10
2.755737344144754
 20
232.8482839422474
 30
0
 11
3.563913032728056
 21
233.6564596308307
 31
0
  0
LINE
  8
1
 62
211
 10
2.897158700382072
 20
232.8482839422474
 30
0
 11
3.621001435892609
 21
233.5721266777579
 31
0
  0
LINE
  8
1
 62
211
 10
3.038580056619389
 20
232.8482839422474
 30
0
 11
3.678089839057161
 21
233.4877937246851
 31
0
  0
LINE
  8
1
 62
211
 10
3.180001412856706
 20
232.8482839422474
 30
0
 11
3.735178242221714
 21
233.4034607716124
 31
0
  0
LINE
  8
1
 62
211
 10
3.321422769094023
 20
232.8482839422474
 30
0
 11
3.792266645386267
 21
233.3191278185396
 31
0
  0
LINE
  8
1
 62
211
 10
3.46284412533134
 20
232.8482839422474
 30
0
 11
3.849355048550819
 21
233.2347948654669
 31
0
  0
LINE
  8
1
 62
211
 10
3.604265481568658
 20
232.8482839422474
 30
0
 11
3.906443451715372
 21
233.1504619123941
 31
0
  0
LINE
  8
1
 62
211
 10
3.745686837805975
 20
232.8482839422474
 30
0
 11
3.963531854879925
 21
233.0661289593213
 31
0
  0
LINE
  8
1
 62
211
 10
3.887108194043292
 20
232.8482839422474
 30
0
 11
4.020620258044477
 21
232.9817960062486
 31
0
  0
LINE
  8
1
 62
211
 10
4.028529550280609
 20
232.8482839422474
 30
0
 11
4.07770866120903
 21
232.8974630531758
 31
0
  0
ENDBLK
  8
0
  0
BLOCK
  8
1
  2
*X1
 70
1
 10
0
 20
0
 30
0
  0
LINE
  8
1
 62
211
 10
-9.490525070304287
 20
238.5625337699366
 30
0
 11
-8.397874266606465
 21
239.6551845736344
 31
0
  0
LINE
  8
1
 62
211
 10
-9.68673010126416
 20
238.2249073827394
 30
0
 11
-8.060247879409346
 21
239.8513896045942
 31
0
  0
LINE
  8
1
 62
211
 10
-9.809869350053788
 20
237.9603467777125
 30
0
 11
-7.795687274382459
 21
239.9745288533838
 31
0
  0
LINE
  8
1
 62
211
 10
-9.897223193319348
 20
237.7315715782096
 30
0
 11
-7.566912074879525
 21
240.0618826966494
 31
0
  0
LINE
  8
1
 62
211
 10
-9.96140723259056
 20
237.5259661827011
 30
0
 11
-7.361306679371012
 21
240.1260667359206
 31
0
  0
LINE
  8
1
 62
211
 10
-10.00948667943445
 20
237.3364653796199
 30
0
 11
-7.171805876289795
 21
240.1741461827645
 31
0
  0
LINE
  8
1
 62
211
 10
-10.04520758151975
 20
237.1593231212973
 30
0
 11
-6.994663617967205
 21
240.2098670848498
 31
0
  0
LINE
  8
1
 62
211
 10
-10.07061522159326
 20
236.9924941249865
 30
0
 11
-6.827834621656393
 21
240.2352747249233
 31
0
  0
LINE
  8
1
 62
211
 10
-10.08800375045419
 20
236.8336842398882
 30
0
 11
-6.669024736558129
 21
240.2526632537843
 31
0
  0
LINE
  8
1
 62
211
 10
-10.0980184439352
 20
236.6822481901699
 30
0
 11
-6.517588686839844
 21
240.2626779472652
 31
0
  0
LINE
  8
1
 62
211
 10
-10.10197014201145
 20
236.5368751358563
 30
0
 11
-6.372215632526277
 21
240.2666296453415
 31
0
  0
LINE
  8
1
 62
211
 10
-10.1004938141897
 20
236.3969301074408
 30
0
 11
-6.232270604110695
 21
240.2651533175198
 31
0
  0
LINE
  8
1
 62
211
 10
-10.09412058738901
 20
236.2618819780042
 30
0
 11
-6.097222474674069
 21
240.2587800907191
 31
0
  0
LINE
  8
1
 62
211
 10
-10.08329817283091
 20
236.1312830363249
 30
0
 11
-5.966623532994902
 21
240.247957676161
 31
0
  0
LINE
  8
1
 62
211
 10
-10.06840662415249
 20
236.004753228766
 30
0
 11
-5.840093725435963
 21
240.2330661274826
 31
0
  0
LINE
  8
1
 62
211
 10
-10.04977062550309
 20
235.8819678711782
 30
0
 11
-5.717308367848119
 21
240.2144301288331
 31
0
  0
LINE
  8
1
 62
211
 10
-10.02766916888665
 20
235.7626479715573
 30
0
 11
-5.597988468227186
 21
240.1923286722167
 31
0
  0
LINE
  8
1
 62
211
 10
-7.432849758776598
 20
238.21604602543
 30
0
 11
-5.481893035906594
 21
240.1670027483
 31
0
  0
LINE
  8
1
 62
211
 10
-10.00234324496996
 20
235.6465525392367
 30
0
 11
-8.051226440245813
 21
237.5976693439608
 31
0
  0
LINE
  8
1
 62
211
 10
-7.134028666827561
 20
238.3734457611417
 30
0
 11
-5.368812918185441
 21
240.1386615097838
 31
0
  0
LINE
  8
1
 62
211
 10
-9.974002006453773
 20
235.5334724215155
 30
0
 11
-8.208626175957548
 21
237.2988482520117
 31
0
  0
LINE
  8
1
 62
211
 10
-6.913960784676391
 20
238.4520922870556
 30
0
 11
-5.25879398095708
 21
240.1072590907749
 31
0
  0
LINE
  8
1
 62
211
 10
-9.942599587444846
 20
235.4234534842872
 30
0
 11
-8.287272701871402
 21
237.0787803698606
 31
0
  0
LINE
  8
1
 62
211
 10
-6.727065232236598
 20
238.4975664832581
 30
0
 11
-5.151471164082082
 21
240.0731605514126
 31
0
  0
LINE
  8
1
 62
211
 10
-9.908501048082528
 20
235.3161306674122
 30
0
 11
-8.332746898073879
 21
236.8918848174208
 31
0
  0
LINE
  8
1
 62
211
 10
-6.560617816123639
 20
238.5225925431337
 30
0
 11
-5.046695948678149
 21
240.0365144105792
 31
0
  0
LINE
  8
1
 62
211
 10
-9.87185490724913
 20
235.2113554520083
 30
0
 11
-8.357772957949564
 21
236.7254374013078
 31
0
  0
LINE
  8
1
 62
211
 10
-6.408480264807835
 20
238.5333087382122
 30
0
 11
-4.944495721614956
 21
239.9972932814051
 31
0
  0
LINE
  8
1
 62
211
 10
-9.832633778075035
 20
235.109155224945
 30
0
 11
-8.368489153028051
 21
236.573299849992
 31
0
  0
LINE
  8
1
 62
211
 10
-6.267364968884991
 20
238.5330026778978
 30
0
 11
-4.844758278018546
 21
239.9556093687642
 31
0
  0
LINE
  8
1
 62
211
 10
-9.790949865434158
 20
235.0094177813486
 30
0
 11
-8.368183092713593
 21
236.4321845540692
 31
0
  0
LINE
  8
1
 62
211
 10
-6.135174002834802
 20
238.5237722877106
 30
0
 11
-4.747243990108004
 21
239.9117023004375
 31
0
  0
LINE
  8
1
 62
211
 10
-9.747042797107383
 20
234.9119034934381
 30
0
 11
-8.358952702526437
 21
236.299993588019
 31
0
  0
LINE
  8
1
 62
211
 10
-6.010521007235809
 20
238.5070039270723
 30
0
 11
-4.652108067344443
 21
239.8654168669637
 31
0
  0
LINE
  8
1
 62
211
 10
-9.700757363633628
 20
234.8167675706745
 30
0
 11
-8.342184341888142
 21
236.17534059242
 31
0
  0
LINE
  8
1
 62
211
 10
-5.892311139397137
 20
238.4837924386737
 30
0
 11
-4.559126912302077
 21
239.8169766657687
 31
0
  0
LINE
  8
1
 62
211
 10
-9.652317162438635
 20
234.7237864156322
 30
0
 11
-8.318972853489512
 21
236.0571307245813
 31
0
  0
LINE
  8
1
 62
211
 10
-5.77988298157311
 20
238.4547992402604
 30
0
 11
-4.46822935920666
 21
239.7664528626269
 31
0
  0
LINE
  8
1
 62
211
 10
-9.601793359296778
 20
234.6328888625367
 30
0
 11
-8.289979655076223
 21
235.9447025667573
 31
0
  0
LINE
  8
1
 62
211
 10
-5.672700730378054
 20
238.4205601352182
 30
0
 11
-4.379540118098362
 21
239.7137207474979
 31
0
  0
LINE
  8
1
 62
211
 10
-9.549061244167788
 20
234.5441996214284
 30
0
 11
-8.255740550033977
 21
235.8375203155622
 31
0
  0
LINE
  8
1
 62
211
 10
-5.570275577178407
 20
238.3815639321805
 30
0
 11
-4.292741938101415
 21
239.6590975712575
 31
0
  0
LINE
  8
1
 62
211
 10
-9.494438067927419
 20
234.4574014414315
 30
0
 11
-8.216744346996322
 21
235.7350951623626
 31
0
  0
LINE
  8
1
 62
211
 10
-5.472284195946742
 20
238.3381339571748
 30
0
 11
-4.208129800834328
 21
239.6022883522872
 31
0
  0
LINE
  8
1
 62
211
 10
-9.437628848957189
 20
234.3727893041644
 30
0
 11
-8.173314371990656
 21
235.6371037811309
 31
0
  0
LINE
  8
1
 62
211
 10
-5.378465814249424
 20
238.2905309826349
 30
0
 11
-4.125355685710943
 21
239.5436411111734
 31
0
  0
LINE
  8
1
 62
211
 10
-9.378981607843286
 20
234.290015189041
 30
0
 11
-8.125711397450701
 21
235.5432853994336
 31
0
  0
LINE
  8
1
 62
211
 10
-5.288611622187361
 20
238.2389638184596
 30
0
 11
-4.044627284338517
 21
239.4829481563085
 31
0
  0
LINE
  8
1
 62
211
 10
-9.31828865297841
 20
234.2092867876686
 30
0
 11
-8.074144233275405
 21
235.4534312073716
 31
0
  0
LINE
  8
1
 62
211
 10
-5.202556819997056
 20
238.1835972644126
 30
0
 11
-3.965760406447558
 21
239.4203936779621
 31
0
  0
LINE
  8
1
 62
211
 10
-9.255734174632053
 20
234.1304199097776
 30
0
 11
-8.018777679228421
 21
235.3673764051812
 31
0
  0
LINE
  8
1
 62
211
 10
-5.120174684289083
 20
238.1245580438833
 30
0
 11
-3.888839577630407
 21
239.3558931505419
 31
0
  0
LINE
  8
1
 62
211
 10
-9.191233647211874
 20
234.0534990809605
 30
0
 11
-7.959738458699064
 21
235.2849942694733
 31
0
  0
LINE
  8
1
 62
211
 10
-5.041406638354346
 20
238.0619047335807
 30
0
 11
-3.813802560040415
 21
239.2895088118946
 31
0
  0
LINE
  8
1
 62
211
 10
-9.124849308564578
 20
233.9784620633705
 30
0
 11
-7.897085148396513
 21
235.2062262235385
 31
0
  0
LINE
  8
1
 62
211
 10
-4.966194647339222
 20
237.9956953683585
 30
0
 11
-3.74064280881322
 21
239.2212472068845
 31
0
  0
LINE
  8
1
 62
211
 10
-9.056587703554484
 20
233.9053023121432
 30
0
 11
-7.830875783174307
 21
235.1310142325235
 31
0
  0
LINE
  8
1
 62
211
 10
-4.894468791851793
 20
237.9259998676086
 30
0
 11
-3.669395004574383
 21
239.151073654886
 31
0
  0
LINE
  8
1
 62
211
 10
-8.986414151555977
 20
233.8340545079045
 30
0
 11
-7.761180282424419
 21
235.059288377036
 31
0
  0
LINE
  8
1
 62
211
 10
-4.826220709546973
 20
237.8528265936761
 30
0
 11
-3.59997809881375
 21
239.0790692044094
 31
0
  0
LINE
  8
1
 62
211
 10
-8.914409701079322
 20
233.7646376021438
 30
0
 11
-7.688007008491965
 21
234.9910402947311
 31
0
  0
LINE
  8
1
 62
211
 10
-4.761469532407148
 20
237.7761564145787
 30
0
 11
-3.532514182435861
 21
239.00511176455
 31
0
  0
LINE
  8
1
 62
211
 10
-8.840452261219909
 20
233.6971736857659
 30
0
 11
-7.611336829394517
 21
234.9262891175913
 31
0
  0
LINE
  8
1
 62
211
 10
-4.700262494440793
 20
237.6959420963077
 30
0
 11
-3.466849606861672
 21
238.9293549838868
 31
0
  0
LINE
  8
1
 62
211
 10
-8.764695480556753
 20
233.6315091101918
 30
0
 11
-7.531122511123499
 21
234.865082079625
 31
0
  0
LINE
  8
1
 62
211
 10
-4.642688628964535
 20
237.6120946055466
 30
0
 11
-3.403199385594078
 21
238.8515838489171
 31
0
  0
LINE
  8
1
 62
211
 10
-8.686924345587045
 20
233.5678588889241
 30
0
 11
-7.447275020362468
 21
234.8075082141487
 31
0
  0
LINE
  8
1
 62
211
 10
-4.588875314425536
 20
237.5244865638483
 30
0
 11
-3.341324622351635
 21
238.7720372559222
 31
0
  0
LINE
  8
1
 62
211
 10
-8.6073777525922
 20
233.5059841256817
 30
0
 11
-7.359666978664194
 21
234.7536948996097
 31
0
  0
LINE
  8
1
 62
211
 10
-4.436053363254029
 20
237.5358871587825
 30
0
 11
-3.281554054818344
 21
238.6903864672182
 31
0
  0
LINE
  8
1
 62
211
 10
-8.525726963888133
 20
233.4462135581484
 30
0
 11
-7.268200785199781
 21
234.7037397368368
 31
0
  0
LINE
  8
1
 62
211
 10
-4.128856181121933
 20
237.7016629846773
 30
0
 11
-3.223574301799459
 21
238.6069448639998
 31
0
  0
LINE
  8
1
 62
211
 10
-8.4422853606697
 20
233.3882338051296
 30
0
 11
-7.172695585963652
 21
234.6578235798356
 31
0
  0
LINE
  8
1
 62
211
 10
-3.821658998989838
 20
237.8674388105721
 30
0
 11
-3.167749195815119
 21
238.5213486137469
 31
0
  0
LINE
  8
1
 62
211
 10
-8.356689110416795
 20
233.3324086991452
 30
0
 11
-7.072923851194318
 21
234.6161739583677
 31
0
  0
LINE
  8
1
 62
211
 10
-3.514461816857742
 20
238.0332146364669
 30
0
 11
-3.113827059949628
 21
238.433849393375
 31
0
  0
LINE
  8
1
 62
211
 10
-8.269189890044942
 20
233.2784865632797
 30
0
 11
-6.968599539038408
 21
234.5790769142862
 31
0
  0
LINE
  8
1
 62
211
 10
-3.207264634725647
 20
238.1989904623617
 30
0
 11
-3.062029132257734
 21
238.3442259648296
 31
0
  0
LINE
  8
1
 62
211
 10
-8.179566461499547
 20
233.2266886355878
 30
0
 11
-6.859267491058745
 21
234.5469876060286
 31
0
  0
LINE
  8
1
 62
211
 10
-8.087837684918469
 20
233.1769960559316
 30
0
 11
-6.744538882585331
 21
234.5202948582647
 31
0
  0
LINE
  8
1
 62
211
 10
-7.994032905482428
 20
233.1293794791303
 30
0
 11
-6.623846452781677
 21
234.4995659318311
 31
0
  0
LINE
  8
1
 62
211
 10
-7.897850968605567
 20
233.0841400597698
 30
0
 11
-6.496155905479469
 21
234.4858351228959
 31
0
  0
LINE
  8
1
 62
211
 10
-7.799497119257524
 20
233.0410725528806
 30
0
 11
-6.36048962038754
 21
234.4800800517505
 31
0
  0
LINE
  8
1
 62
211
 10
-7.698749463955394
 20
233.0003988519454
 30
0
 11
-6.215157944457957
 21
234.4839903714428
 31
0
  0
LINE
  8
1
 62
211
 10
-7.595472546149423
 20
232.9622544135141
 30
0
 11
-6.057700495397498
 21
234.500026464266
 31
0
  0
LINE
  8
1
 62
211
 10
-7.489721795408869
 20
232.9265838080173
 30
0
 11
-5.883826864704233
 21
234.5324787387219
 31
0
  0
LINE
  8
1
 62
211
 10
-7.381326386586579
 20
232.8935578606023
 30
0
 11
-5.685606429886803
 21
234.589277817302
 31
0
  0
LINE
  8
1
 62
211
 10
-7.269981800890605
 20
232.8634810900609
 30
0
 11
-5.443108031325337
 21
234.6903548596262
 31
0
  0
LINE
  8
1
 62
211
 10
-4.797746357444566
 20
235.1942951772697
 30
0
 11
-4.486409891123206
 21
235.5056316435908
 31
0
  0
LINE
  8
1
 62
211
 10
-7.155728638451052
 20
232.8363128962632
 30
0
 11
-5.029475592085447
 21
234.9625659426288
 31
0
  0
LINE
  8
1
 62
211
 10
-7.038373347712849
 20
232.8122468307641
 30
0
 11
-4.394556357428677
 21
235.4560638210481
 31
0
  0
LINE
  8
1
 62
211
 10
-6.917693380882966
 20
232.7915054413566
 30
0
 11
-4.302702823734148
 21
235.4064959985053
 31
0
  0
LINE
  8
1
 62
211
 10
-6.793431704860524
 20
232.7743457611418
 30
0
 11
-4.210849290039619
 21
235.3569281759625
 31
0
  0
LINE
  8
1
 62
211
 10
-6.665289978533764
 20
232.7610661312312
 30
0
 11
-4.11899575634509
 21
235.3073603534198
 31
0
  0
LINE
  8
1
 62
211
 10
-6.532920004175438
 20
232.7520147493523
 30
0
 11
-4.027142222650561
 21
235.257792530877
 31
0
  0
LINE
  8
1
 62
211
 10
-6.395912922667236
 20
232.7476004746231
 30
0
 11
-3.935288688956032
 21
235.2082247083342
 31
0
  0
LINE
  8
1
 62
211
 10
-6.253785427196135
 20
232.7483066138569
 30
0
 11
-3.843435155261503
 21
235.1586568857915
 31
0
  0
LINE
  8
1
 62
211
 10
-6.105961990366907
 20
232.7547086944489
 30
0
 11
-3.751581621566974
 21
235.1090890632487
 31
0
  0
LINE
  8
1
 62
211
 10
-5.95175169252947
 20
232.767497636049
 30
0
 11
-3.659728087872445
 21
235.0595212407059
 31
0
  0
LINE
  8
1
 62
211
 10
-5.789715796056171
 20
232.788112176285
 30
0
 11
-3.567874554177916
 21
235.0099534181631
 31
0
  0
LINE
  8
1
 62
211
 10
-5.618983448483462
 20
232.8174231676203
 30
0
 11
-3.476021020483387
 21
234.9603855956204
 31
0
  0
LINE
  8
1
 62
211
 10
-5.43724585043573
 20
232.8577394094308
 30
0
 11
-3.384167486788858
 21
234.9108177730776
 31
0
  0
LINE
  8
1
 62
211
 10
-5.241714695639359
 20
232.9118492079899
 30
0
 11
-3.292313953094329
 21
234.8612499505348
 31
0
  0
LINE
  8
1
 62
211
 10
-5.027430635790225
 20
232.9847119116017
 30
0
 11
-3.2004604193998
 21
234.8116821279921
 31
0
  0
LINE
  8
1
 62
211
 10
-4.786353206862103
 20
233.0843679842925
 30
0
 11
-3.108606885705271
 21
234.7621143054493
 31
0
  0
LINE
  8
1
 62
211
 10
-4.499319122383113
 20
233.2299807125342
 30
0
 11
-3.065321209204129
 21
234.6639786257132
 31
0
  0
LINE
  8
1
 62
211
 10
-4.095131700186272
 20
233.4927467784937
 30
0
 11
-3.328087275163568
 21
234.2597912035164
 31
0
  0
ENDBLK
  8
0
  0
BLOCK
  8
1
  2
*X2
 70
1
 10
0
 20
0
 30
0
  0
LINE
  8
1
 62
211
 10
-19.51057461915033
 20
239.1490859388888
 30
0
 11
-18.88019896734612
 21
239.779461590693
 31
0
  0
LINE
  8
1
 62
211
 10
-19.68678955719588
 20
238.8314496446059
 30
0
 11
-18.56256267306323
 21
239.9556765287385
 31
0
  0
LINE
  8
1
 62
211
 10
-19.77695816300573
 20
238.5998596825588
 30
0
 11
-18.33097271101605
 21
240.0458451345484
 31
0
  0
LINE
  8
1
 62
211
 10
-19.83142805448173
 20
238.4039684348455
 30
0
 11
-18.13508146330274
 21
240.1003150260244
 31
0
  0
LINE
  8
1
 62
211
 10
-19.8643172483866
 20
238.2296578847032
 30
0
 11
-17.96077091316053
 21
240.1332042199293
 31
0
  0
LINE
  8
1
 62
211
 10
-19.8822730915665
 20
238.070280685286
 30
0
 11
-17.80139371374329
 21
240.1511600631093
 31
0
  0
LINE
  8
1
 62
211
 10
-19.88877941909612
 20
237.9223530015191
 30
0
 11
-17.65346602997641
 21
240.1576663906388
 31
0
  0
LINE
  8
1
 62
211
 10
-19.88611307571743
 20
237.7835979886605
 30
0
 11
-17.5118250530632
 21
240.1578860113147
 31
0
  0
LINE
  8
1
 62
211
 10
-19.87568599041167
 20
237.652603717729
 30
0
 11
-17.37040369682589
 21
240.1578860113147
 31
0
  0
LINE
  8
1
 62
211
 10
-19.85862751059624
 20
237.528240841307
 30
0
 11
-17.22898234058858
 21
240.1578860113147
 31
0
  0
LINE
  8
1
 62
211
 10
-19.83575299908608
 20
237.4096939965799
 30
0
 11
-17.08756098435127
 21
240.1578860113147
 31
0
  0
LINE
  8
1
 62
211
 10
-19.80764955379149
 20
237.2963760856372
 30
0
 11
-16.94613962811396
 21
240.1578860113147
 31
0
  0
LINE
  8
1
 62
211
 10
-19.77479001376432
 20
237.1878142694271
 30
0
 11
-16.80471827187665
 21
240.1578860113147
 31
0
  0
LINE
  8
1
 62
211
 10
-19.73755778032876
 20
237.0836251466253
 30
0
 11
-16.66329691563934
 21
240.1578860113147
 31
0
  0
LINE
  8
1
 62
211
 10
-19.69617804669728
 20
236.9835835240195
 30
0
 11
-16.52187555940203
 21
240.1578860113147
 31
0
  0
LINE
  8
1
 62
211
 10
-19.65092500920842
 20
236.887415205271
 30
0
 11
-16.38045420316472
 21
240.1578860113147
 31
0
  0
LINE
  8
1
 62
211
 10
-19.602057632803
 20
236.7948612254391
 30
0
 11
-16.23903284692742
 21
240.1578860113147
 31
0
  0
LINE
  8
1
 62
211
 10
-17.91822195222392
 20
238.3372755497809
 30
0
 11
-16.09761149069011
 21
240.1578860113147
 31
0
  0
LINE
  8
1
 62
211
 10
-19.54964584222081
 20
236.705851659784
 30
0
 11
-18.0683885782382
 21
238.1871089237666
 31
0
  0
LINE
  8
1
 62
211
 10
-17.69395359355072
 20
238.4201225522168
 30
0
 11
-15.9561901344528
 21
240.1578860113147
 31
0
  0
LINE
  8
1
 62
211
 10
-19.49382728000168
 20
236.6202488657658
 30
0
 11
-18.15123558067408
 21
237.9628405650934
 31
0
  0
LINE
  8
1
 62
211
 10
-17.54840302036611
 20
238.4242517691641
 30
0
 11
-15.81476877821549
 21
240.1578860113147
 31
0
  0
LINE
  8
1
 62
211
 10
-19.43477982117268
 20
236.5378749683575
 30
0
 11
-18.15006691335705
 21
237.8225878761731
 31
0
  0
LINE
  8
1
 62
211
 10
-17.4069816641288
 20
238.4242517691641
 30
0
 11
-15.67334742197818
 21
240.1578860113147
 31
0
  0
LINE
  8
1
 62
211
 10
-19.37240940783221
 20
236.4588240254607
 30
0
 11
-18.12109273379313
 21
237.7101406994998
 31
0
  0
LINE
  8
1
 62
211
 10
-17.26556030789149
 20
238.4242517691641
 30
0
 11
-15.53192606574087
 21
240.1578860113147
 31
0
  0
LINE
  8
1
 62
211
 10
-19.30696662865208
 20
236.3828454484035
 30
0
 11
-18.07402817255804
 21
237.6157839044976
 31
0
  0
LINE
  8
1
 62
211
 10
-17.12413895165418
 20
238.4242517691641
 30
0
 11
-15.39050470950356
 21
240.1578860113147
 31
0
  0
LINE
  8
1
 62
211
 10
-19.23828508422176
 20
236.3101056365965
 30
0
 11
-18.0123316035416
 21
237.5360591172767
 31
0
  0
LINE
  8
1
 62
211
 10
-16.98271759541687
 20
238.4242517691641
 30
0
 11
-15.2492054481324
 21
240.1577639164486
 31
0
  0
LINE
  8
1
 62
211
 10
-19.1665548804328
 20
236.2404144841482
 30
0
 11
-17.93708098948959
 21
237.4698883750914
 31
0
  0
LINE
  8
1
 62
211
 10
-16.84129623917956
 20
238.4242517691641
 30
0
 11
-15.11410147555654
 21
240.1514465327871
 31
0
  0
LINE
  8
1
 62
211
 10
-19.09162670206386
 20
236.1739213062798
 30
0
 11
-17.84773448151545
 21
237.4178135268282
 31
0
  0
LINE
  8
1
 62
211
 10
-16.69987488294225
 20
238.4242517691641
 30
0
 11
-14.988216949421
 21
240.1359097026854
 31
0
  0
LINE
  8
1
 62
211
 10
-19.01358154605268
 20
236.1105451060537
 30
0
 11
-17.74181375843709
 21
237.3823128936693
 31
0
  0
LINE
  8
1
 62
211
 10
-16.55845352670494
 20
238.4242517691641
 30
0
 11
-14.87001907859602
 21
240.1126862172731
 31
0
  0
LINE
  8
1
 62
211
 10
-18.93231388147919
 20
236.0503914143899
 30
0
 11
-17.61280319801284
 21
237.3699020978562
 31
0
  0
LINE
  8
1
 62
211
 10
-16.41703217046764
 20
238.4242517691641
 30
0
 11
-14.75850530381365
 21
240.0827786358181
 31
0
  0
LINE
  8
1
 62
211
 10
-18.84776661830792
 20
235.9935173213238
 30
0
 11
-17.47138184177553
 21
237.3699020978562
 31
0
  0
LINE
  8
1
 62
211
 10
-16.27561081423033
 20
238.4242517691641
 30
0
 11
-14.65298553333712
 21
240.0468770500573
 31
0
  0
LINE
  8
1
 62
211
 10
-18.75992256764457
 20
235.9399400157499
 30
0
 11
-17.32996048553822
 21
237.3699020978562
 31
0
  0
LINE
  8
1
 62
211
 10
-16.13418945799302
 20
238.4242517691641
 30
0
 11
-14.55282370932792
 21
240.0056175178292
 31
0
  0
LINE
  8
1
 62
211
 10
-18.66850824514968
 20
235.8899329820075
 30
0
 11
-17.18853912930091
 21
237.3699020978562
 31
0
  0
LINE
  8
1
 62
211
 10
-15.99276810175571
 20
238.4242517691641
 30
0
 11
-14.45769297733125
 21
239.9593268935886
 31
0
  0
LINE
  8
1
 62
211
 10
-18.57353991518812
 20
235.8434799557317
 30
0
 11
-17.0471177730636
 21
237.3699020978562
 31
0
  0
LINE
  8
1
 62
211
 10
-19.8365885746945
 20
234.5804312962253
 30
0
 11
-19.83510168652198
 21
234.5819181843978
 31
0
  0
LINE
  8
1
 62
211
 10
-15.8513467455184
 20
238.4242517691641
 30
0
 11
-14.3672229710477
 21
239.9083755436348
 31
0
  0
LINE
  8
1
 62
211
 10
-18.47482009960741
 20
235.8007784150751
 30
0
 11
-16.9056964168263
 21
237.3699020978562
 31
0
  0
LINE
  8
1
 62
211
 10
-19.83108230612432
 20
234.4445162085582
 30
0
 11
-19.69368033028467
 21
234.5819181843978
 31
0
  0
LINE
  8
1
 62
211
 10
-15.70992538928109
 20
238.4242517691641
 30
0
 11
-14.28126509300763
 21
239.8529120654376
 31
0
  0
LINE
  8
1
 62
211
 10
-18.37199212921672
 20
235.7621850292285
 30
0
 11
-16.76427506058899
 21
237.3699020978562
 31
0
  0
LINE
  8
1
 62
211
 10
-19.81632398866606
 20
234.3178531697791
 30
0
 11
-19.55225897404736
 21
234.5819181843978
 31
0
  0
LINE
  8
1
 62
211
 10
-15.56850403304378
 20
238.4242517691641
 30
0
 11
-14.19955197178132
 21
239.7932038304266
 31
0
  0
LINE
  8
1
 62
211
 10
-18.26489718578871
 20
235.7278586164192
 30
0
 11
-16.62285370435168
 21
237.3699020978562
 31
0
  0
LINE
  8
1
 62
211
 10
-19.79373862430288
 20
234.199017177905
 30
0
 11
-19.41083761781005
 21
234.5819181843978
 31
0
  0
LINE
  8
1
 62
211
 10
-15.42708267680647
 20
238.4242517691641
 30
0
 11
-14.12204274909256
 21
239.729291696878
 31
0
  0
LINE
  8
1
 62
211
 10
-18.15318114337138
 20
235.6981533025992
 30
0
 11
-16.48143234811437
 21
237.3699020978562
 31
0
  0
LINE
  8
1
 62
211
 10
-19.76437650592294
 20
234.0869579400476
 30
0
 11
-19.26941626157274
 21
234.5819181843978
 31
0
  0
LINE
  8
1
 62
211
 10
-15.28566132056916
 20
238.4242517691641
 30
0
 11
-14.04866222393603
 21
239.6612508657972
 31
0
  0
LINE
  8
1
 62
211
 10
-18.0364030209137
 20
235.6735100688196
 30
0
 11
-16.34001099187706
 21
237.3699020978562
 31
0
  0
LINE
  8
1
 62
211
 10
-19.72902502901913
 20
233.9808880607141
 30
0
 11
-19.12799490533543
 21
234.5819181843978
 31
0
  0
LINE
  8
1
 62
211
 10
-15.14423996433185
 20
238.4242517691641
 30
0
 11
-13.97932924841287
 21
239.5891624850831
 31
0
  0
LINE
  8
1
 62
211
 10
-17.91401665337415
 20
235.6544750801218
 30
0
 11
-16.19858963563975
 21
237.3699020978562
 31
0
  0
LINE
  8
1
 62
211
 10
-19.68823171172873
 20
233.8802600217672
 30
0
 11
-18.98657354909813
 21
234.5819181843978
 31
0
  0
LINE
  8
1
 62
211
 10
-15.00281860809454
 20
238.4242517691641
 30
0
 11
-13.91409194157322
 21
239.5129784356855
 31
0
  0
LINE
  8
1
 62
211
 10
-17.78533083511655
 20
235.6417395421421
 30
0
 11
-16.05716827940244
 21
237.3699020978562
 31
0
  0
LINE
  8
1
 62
211
 10
-19.64236047252136
 20
233.7847099047373
 30
0
 11
-18.84515219286082
 21
234.5819181843978
 31
0
  0
LINE
  8
1
 62
211
 10
-14.86139725185723
 20
238.4242517691641
 30
0
 11
-13.85305276002431
 21
239.432596260997
 31
0
  0
LINE
  8
1
 62
211
 10
-17.64919878432816
 20
235.6364502366932
 30
0
 11
-15.91574692316513
 21
237.3699020978562
 31
0
  0
LINE
  8
1
 62
211
 10
-19.59181270787607
 20
233.6938363131453
 30
0
 11
-18.70373083662351
 21
234.5819181843978
 31
0
  0
LINE
  8
1
 62
211
 10
-14.71997589561992
 20
238.4242517691641
 30
0
 11
-13.7962204149442
 21
239.3480072498398
 31
0
  0
LINE
  8
1
 62
211
 10
-17.50795980907839
 20
235.6362678557056
 30
0
 11
-15.77432556692782
 21
237.3699020978562
 31
0
  0
LINE
  8
1
 62
211
 10
-19.53676523008394
 20
233.6074624347001
 30
0
 11
-18.5623094803862
 21
234.5819181843978
 31
0
  0
LINE
  8
1
 62
211
 10
-14.57855453938262
 20
238.4242517691641
 30
0
 11
-13.74380998097666
 21
239.2589963275701
 31
0
  0
LINE
  8
1
 62
211
 10
-17.36653845284108
 20
235.6362678557056
 30
0
 11
-15.63290421069051
 21
237.3699020978562
 31
0
  0
LINE
  8
1
 62
211
 10
-19.47739556704823
 20
233.5254107414985
 30
0
 11
-18.42088812414889
 21
234.5819181843978
 31
0
  0
LINE
  8
1
 62
211
 10
-14.43713318314531
 20
238.4242517691641
 30
0
 11
-13.69601950133203
 21
239.1653654509774
 31
0
  0
LINE
  8
1
 62
211
 10
-17.22511709660377
 20
235.6362678557056
 30
0
 11
-15.49226534020292
 21
237.3691196121065
 31
0
  0
LINE
  8
1
 62
211
 10
-19.41387995746592
 20
233.4475049948435
 30
0
 11
-18.27946676791158
 21
234.5819181843978
 31
0
  0
LINE
  8
1
 62
211
 10
-14.295711826908
 20
238.4242517691641
 30
0
 11
-13.65310888370475
 21
239.0668547123674
 31
0
  0
LINE
  8
1
 62
211
 10
-17.08369574036647
 20
235.6362678557056
 30
0
 11
-15.358137184885
 21
237.3618264111871
 31
0
  0
LINE
  8
1
 62
211
 10
-19.3462178277845
 20
233.3737457682876
 30
0
 11
-18.13804541167427
 21
234.5819181843978
 31
0
  0
LINE
  8
1
 62
211
 10
-14.15429047067069
 20
238.4242517691641
 30
0
 11
-13.61545394777161
 21
238.9630882920632
 31
0
  0
LINE
  8
1
 62
211
 10
-16.94227438412916
 20
235.6362678557056
 30
0
 11
-15.23105804818201
 21
237.3474841916528
 31
0
  0
LINE
  8
1
 62
211
 10
-19.27445982861708
 20
233.3040824112177
 30
0
 11
-17.99662405543696
 21
234.5819181843978
 31
0
  0
LINE
  8
1
 62
211
 10
-14.01286911443338
 20
238.4242517691641
 30
0
 11
-13.58360755493295
 21
238.8535133286645
 31
0
  0
LINE
  8
1
 62
211
 10
-16.80085302789185
 20
235.6362678557056
 30
0
 11
-15.11016737883851
 21
237.326953504759
 31
0
  0
LINE
  8
1
 62
211
 10
-19.19864386975595
 20
233.2384770138415
 30
0
 11
-17.85520269919965
 21
234.5819181843978
 31
0
  0
LINE
  8
1
 62
211
 10
-13.87144775819607
 20
238.4242517691641
 30
0
 11
-13.55816778636772
 21
238.7375317409924
 31
0
  0
LINE
  8
1
 62
211
 10
-16.65943167165454
 20
235.6362678557056
 30
0
 11
-14.9947191624431
 21
237.3009803649171
 31
0
  0
LINE
  8
1
 62
211
 10
-19.11867359780857
 20
233.1770259295516
 30
0
 11
-17.71378134296234
 21
234.5819181843978
 31
0
  0
LINE
  8
1
 62
211
 10
-13.73002640195876
 20
238.4242517691641
 30
0
 11
-13.54005651493269
 21
238.6142216561902
 31
0
  0
LINE
  8
1
 62
211
 10
-16.51801031541723
 20
235.6362678557056
 30
0
 11
-14.88420029400289
 21
237.27007787712
 31
0
  0
LINE
  8
1
 62
211
 10
-19.0344273556139
 20
233.119850815509
 30
0
 11
-17.57235998672503
 21
234.5819181843978
 31
0
  0
LINE
  8
1
 62
211
 10
-13.58860504572145
 20
238.4242517691641
 30
0
 11
-13.53055377520801
 21
238.4823030396776
 31
0
  0
LINE
  8
1
 62
211
 10
-16.37658895917992
 20
235.6362678557056
 30
0
 11
-14.77823845647143
 21
237.2346183584141
 31
0
  0
LINE
  8
1
 62
211
 10
-18.94585087735004
 20
233.0670059375355
 30
0
 11
-17.43093863048772
 21
234.5819181843978
 31
0
  0
LINE
  8
1
 62
211
 10
-16.23516760294261
 20
235.6362678557056
 30
0
 11
-14.67653037646255
 21
237.1949050821857
 31
0
  0
LINE
  8
1
 62
211
 10
-18.85262068262494
 20
233.0188147760233
 30
0
 11
-17.28951727425041
 21
234.5819181843978
 31
0
  0
LINE
  8
1
 62
211
 10
-16.0937462467053
 20
235.6362678557056
 30
0
 11
-14.57874540238532
 21
237.1512687000256
 31
0
  0
LINE
  8
1
 62
211
 10
-18.75458695460674
 20
232.9754271478042
 30
0
 11
-17.14809591801311
 21
234.5819181843978
 31
0
  0
LINE
  8
1
 62
211
 10
-15.95232489046799
 20
235.6362678557056
 30
0
 11
-14.48465381352813
 21
237.1039389326455
 31
0
  0
LINE
  8
1
 62
211
 10
-18.65125457382877
 20
232.9373381723449
 30
0
 11
-17.0066745617758
 21
234.5819181843978
 31
0
  0
LINE
  8
1
 62
211
 10
-15.81090353423068
 20
235.6362678557056
 30
0
 11
-14.39421847394952
 21
237.0529529159868
 31
0
  0
LINE
  8
1
 62
211
 10
-18.54225011414799
 20
232.9049212757883
 30
0
 11
-16.86525320553849
 21
234.5819181843978
 31
0
  0
LINE
  8
1
 62
211
 10
-15.66948217799337
 20
235.6362678557056
 30
0
 11
-14.30718691653824
 21
236.9985631171608
 31
0
  0
LINE
  8
1
 62
211
 10
-18.42688804735465
 20
232.8788619863444
 30
0
 11
-16.72383184930118
 21
234.5819181843978
 31
0
  0
LINE
  8
1
 62
211
 10
-15.52845353184949
 20
235.6358751456122
 30
0
 11
-14.22346175491133
 21
236.9408669225504
 31
0
  0
LINE
  8
1
 62
211
 10
-18.30426003729181
 20
232.8600686401699
 30
0
 11
-16.58241049306387
 21
234.5819181843978
 31
0
  0
LINE
  8
1
 62
211
 10
-15.40621904737625
 20
235.6166882738481
 30
0
 11
-14.14304873306371
 21
236.8798585881607
 31
0
  0
LINE
  8
1
 62
211
 10
-18.17314489272837
 20
232.849762428496
 30
0
 11
-16.44098913682656
 21
234.5819181843978
 31
0
  0
LINE
  8
1
 62
211
 10
-15.30489580431747
 20
235.5765901606696
 30
0
 11
-14.06573635691583
 21
236.8157496080712
 31
0
  0
LINE
  8
1
 62
211
 10
-18.03320202273978
 20
232.8482839422473
 30
0
 11
-16.29956778058925
 21
234.5819181843978
 31
0
  0
LINE
  8
1
 62
211
 10
-15.2192636938365
 20
235.5208009149133
 30
0
 11
-13.9916899878703
 21
236.7483746208795
 31
0
  0
LINE
  8
1
 62
211
 10
-17.89178066650247
 20
232.8482839422473
 30
0
 11
-16.15814642435194
 21
234.5819181843978
 31
0
  0
LINE
  8
1
 62
211
 10
-15.14743263801623
 20
235.4512106144962
 30
0
 11
-13.92067110353221
 21
236.6779721489802
 31
0
  0
LINE
  8
1
 62
211
 10
-17.75035931026516
 20
232.8482839422473
 30
0
 11
-16.01672506811463
 21
234.5819181843978
 31
0
  0
LINE
  8
1
 62
211
 10
-15.08926930018953
 20
235.3679525960856
 30
0
 11
-13.8528767980979
 21
236.6043450981772
 31
0
  0
LINE
  8
1
 62
211
 10
-17.60893795402785
 20
232.8482839422473
 30
0
 11
-15.87530371187732
 21
234.5819181843978
 31
0
  0
LINE
  8
1
 62
211
 10
-15.04632292990102
 20
235.2694776101368
 30
0
 11
-13.78815432939965
 21
236.5276462106382
 31
0
  0
LINE
  8
1
 62
211
 10
-17.46751659779054
 20
232.8482839422473
 30
0
 11
-15.73388235564001
 21
234.5819181843978
 31
0
  0
LINE
  8
1
 62
211
 10
-15.02303165718155
 20
235.151347526619
 30
0
 11
-13.72666910283695
 21
236.4477100809636
 31
0
  0
LINE
  8
1
 62
211
 10
-17.32609524155323
 20
232.8482839422473
 30
0
 11
-15.5924609994027
 21
234.5819181843978
 31
0
  0
LINE
  8
1
 62
211
 10
-15.03267413846956
 20
235.0002836890936
 30
0
 11
-13.6683961960467
 21
236.3645616315165
 31
0
  0
LINE
  8
1
 62
211
 10
-17.18467388531592
 20
232.8482839422473
 30
0
 11
-15.43968165895525
 21
234.593276168608
 31
0
  0
LINE
  8
1
 62
211
 10
-17.04325252907861
 20
232.8482839422473
 30
0
 11
-13.6134260859119
 21
236.278110385414
 31
0
  0
LINE
  8
1
 62
211
 10
-16.90183117284131
 20
232.8482839422473
 30
0
 11
-13.56192858864951
 21
236.1881865264391
 31
0
  0
LINE
  8
1
 62
211
 10
-16.760409816604
 20
232.8482839422473
 30
0
 11
-13.51391728310027
 21
236.094776475751
 31
0
  0
LINE
  8
1
 62
211
 10
-16.61898846036669
 20
232.8482839422473
 30
0
 11
-13.4696487715093
 21
235.9976236311047
 31
0
  0
LINE
  8
1
 62
211
 10
-16.47756710412938
 20
232.8482839422473
 30
0
 11
-13.42932869258003
 21
235.8965223537966
 31
0
  0
LINE
  8
1
 62
211
 10
-16.33614574789207
 20
232.8482839422473
 30
0
 11
-13.39314902062453
 21
235.7912806695148
 31
0
  0
LINE
  8
1
 62
211
 10
-16.19472439165476
 20
232.8482839422473
 30
0
 11
-13.36144055260179
 21
235.6815677813003
 31
0
  0
LINE
  8
1
 62
211
 10
-16.05330303541745
 20
232.8482839422473
 30
0
 11
-13.33461008532655
 21
235.5669768923382
 31
0
  0
LINE
  8
1
 62
211
 10
-15.91188167918014
 20
232.8482839422473
 30
0
 11
-13.31316045582891
 21
235.4470051655985
 31
0
  0
LINE
  8
1
 62
211
 10
-15.77046032294283
 20
232.8482839422473
 30
0
 11
-13.29771784018025
 21
235.3210264250099
 31
0
  0
LINE
  8
1
 62
211
 10
-15.62903896670552
 20
232.8482839422473
 30
0
 11
-13.28906949583337
 21
235.1882534131194
 31
0
  0
LINE
  8
1
 62
211
 10
-15.48668910588449
 20
232.849212446831
 30
0
 11
-13.28861041669259
 21
235.0472911360229
 31
0
  0
LINE
  8
1
 62
211
 10
-15.33611799882995
 20
232.8583621976482
 30
0
 11
-13.29776016750981
 21
234.8967200289684
 31
0
  0
LINE
  8
1
 62
211
 10
-15.17334794727708
 20
232.8797108929638
 30
0
 11
-13.31910886282543
 21
234.7339499774155
 31
0
  0
LINE
  8
1
 62
211
 10
-14.99433157080423
 20
232.9173059131994
 30
0
 11
-13.35670388306093
 21
234.5549336009427
 31
0
  0
LINE
  8
1
 62
211
 10
-14.79125940621282
 20
232.9789567215535
 30
0
 11
-13.41835469141505
 21
234.3518614363512
 31
0
  0
LINE
  8
1
 62
211
 10
-14.54602392605432
 20
233.0827708454746
 30
0
 11
-13.52216881533619
 21
234.1066259561928
 31
0
  0
LINE
  8
1
 62
211
 10
-14.17046088214889
 20
233.3169125331428
 30
0
 11
-13.75631050300441
 21
233.7310629122873
 31
0
  0
ENDBLK
  8
0
  0
BLOCK
  8
0
  2
LOGO__SICK_AG
 70
0
 10
-20.33402911299179
 20
236.5068407861929
 30
0
  0
INSERT
  8
1
  2
*X0
 10
0
 20
0
 30
0
  0
INSERT
  8
1
  2
*X1
 10
0
 20
0
 30
0
  0
INSERT
  8
1
  2
*X2
 10
0
 20
0
 30
0
  0
SOLID
  8
1
 62
211
 10
-10.84993011855947
 20
232.8482839422474
 30
0
 11
-10.84993011855947
 21
240.1578860113147
 31
0
 12
-12.61273609074589
 22
232.8482839422473
 32
0
 13
-12.61273609074589
 23
240.1578860113147
 33
0
  0
POLYLINE
  8
1
 62
211
 66
1
 70
1
  0
VERTEX
  8
1
 10
-3.033583721519382
 20
238.2927155956103
 30
0
  0
VERTEX
  8
1
 10
-4.558295422172013
 20
237.469920478569
 30
0
 42
3.958778999498098
  0
VERTEX
  8
1
 10
-4.558295422172013
 20
235.5444239371817
 30
0
  0
VERTEX
  8
1
 10
-3.033449523660228
 20
234.7215564016345
 30
0
 42
-3.958778507163964
  0
VERTEX
  8
1
 10
-3.033583721519382
 20
238.2927155956103
 30
0
  0
SEQEND
  8
1
  0
POLYLINE
  8
1
 62
211
 66
1
 70
1
  0
VERTEX
  8
1
 10
-12.61273609074589
 20
240.1578860113147
 30
0
  0
VERTEX
  8
1
 10
-12.61273609074589
 20
232.8482839422473
 30
0
  0
VERTEX
  8
1
 10
-10.84993011855947
 20
232.8482839422474
 30
0
  0
VERTEX
  8
1
 10
-10.84993011855947
 20
240.1578860113147
 30
0
  0
VERTEX
  8
1
 10
-12.61273609074589
 20
240.1578860113147
 30
0
  0
SEQEND
  8
1
  0
POLYLINE
  8
1
 62
211
 66
1
 70
1
  0
VERTEX
  8
1
 10
1.639737726933912
 20
236.4989175867759
 30
0
  0
VERTEX
  8
1
 10
4.110999999999602
 20
240.1578860113147
 30
0
  0
VERTEX
  8
1
 10
1.956459367326782
 20
240.1578860113147
 30
0
  0
VERTEX
  8
1
 10
0.110305595036617
 20
237.2698847377321
 30
0
  0
VERTEX
  8
1
 10
-0.581481145821489
 20
237.2698847377321
 30
0
  0
VERTEX
  8
1
 10
-0.581481145821716
 20
240.1578860113147
 30
0
  0
VERTEX
  8
1
 10
-2.331784947992493
 20
240.1578860113147
 30
0
  0
VERTEX
  8
1
 10
-2.331784947992777
 20
232.8482839422474
 30
0
  0
VERTEX
  8
1
 10
-0.581481145821716
 20
232.8482839422474
 30
0
  0
VERTEX
  8
1
 10
-0.581481145821716
 20
235.7196156558092
 30
0
  0
VERTEX
  8
1
 10
0.110305595036674
 20
235.7196156558091
 30
0
  0
VERTEX
  8
1
 10
1.95645936732701
 20
232.8482839422473
 30
0
  0
VERTEX
  8
1
 10
4.110999999999602
 20
232.8482839422474
 30
0
  0
VERTEX
  8
1
 10
1.639737726933912
 20
236.4989175867759
 30
0
  0
SEQEND
  8
1
  0
LINE
  8
1
 62
211
 10
-15.54856284146478
 20
235.6362678557056
 30
0
 11
-17.62610626696521
 21
235.6362678557056
 31
0
  0
LINE
  8
1
 62
211
 10
-19.83660155057099
 20
234.5819181843978
 30
0
 11
-15.54856284146478
 21
234.5819181843978
 31
0
  0
LINE
  8
1
 62
211
 10
-15.55057468491559
 20
232.8482839422473
 30
0
 11
-18.10296730842042
 21
232.8482839422473
 31
0
  0
LINE
  8
1
 62
211
 10
-17.6281181104158
 20
237.3699020978562
 30
0
 11
-15.55057468491559
 21
237.3699020978562
 31
0
  0
LINE
  8
1
 62
211
 10
-13.52956189188341
 20
238.4242517691641
 30
0
 11
-17.6281181104158
 21
238.4242517691641
 31
0
  0
LINE
  8
1
 62
211
 10
-17.62610626696499
 20
240.1578860113147
 30
0
 11
-15.26319613403398
 21
240.1578860113147
 31
0
  0
ARC
  8
1
 62
211
 10
-18.10296730842042
 20
234.5819181843978
 30
0
 40
1.733634242150568
 50
180
 51
270
  0
ARC
  8
1
 62
211
 10
-15.54849098991308
 20
235.1090930200515
 30
0
 40
0.5271748405502029
 50
269.9921908437963
 51
90.00780915620375
  0
ARC
  8
1
 62
211
 10
-15.54849098991308
 20
235.1090930200515
 30
0
 40
2.260810038032105
 50
269.9471928448962
 51
90.05280715510379
  0
ARC
  8
1
 62
211
 10
-15.26319613403398
 20
238.4242517691642
 30
0
 40
1.733634242150568
 50
0
 51
90
  0
ARC
  8
1
 62
211
 10
-17.62818996196761
 20
237.8970769335103
 30
0
 40
0.5271748405503166
 50
89.99219084378427
 51
270.0078091562157
  0
ARC
  8
1
 62
211
 10
-17.62818996196761
 20
237.8970769335103
 30
0
 40
2.260810038032304
 50
89.94719284489337
 51
270.052807155101
  0
ENDBLK
  8
0
  0
BLOCK
  8
0
  2
_ANSCHRIFT_WALDKIRCH
 70
0
 10
5.111
 20
223.0559999999999
 30
0
  0
LINE
  8
1
 62
7
 10
-20.889
 20
228.531
 30
0
 11
5.111
 21
228.531
 31
0
  0
TEXT
  8
1
 62
2
 10
-15.48452328394022
 20
224.9309999999999
 30
0
 40
2
  1
D-79183 Waldkirch
 41
0.7
  0
ENDBLK
  8
0
  0
BLOCK
  8
0
  2
_DINA4_K
 70
0
 10
-1.764
 20
366.306
 30
0
  0
LINE
  8
1
 62
7
 10
-20.889
 20
249.3809999999999
 30
0
 11
21.16100000000001
 21
249.3809999999999
 31
0
  0
LINE
  8
1
 62
7
 10
-20.889
 20
249.6309999999999
 30
0
 11
21.16100000000001
 21
249.6309999999999
 31
0
  0
LINE
  8
1
 62
7
 10
97.986
 20
223.0559999999999
 30
0
 11
97.98600000000012
 21
261.856
 31
0
  0
LINE
  8
1
 62
7
 10
-86.514
 20
261.856
 30
0
 11
97.98600000000012
 21
261.856
 31
0
  0
LINE
  8
1
 62
2
 10
-106.764
 20
514.8059999999998
 30
0
 11
-106.764
 21
217.8059999999999
 31
0
  0
LINE
  8
1
 62
2
 10
103.236
 20
217.806
 30
0
 11
103.236
 21
514.806
 31
0
  0
LINE
  8
1
 62
7
 10
98.236
 20
509.8059999999999
 30
0
 11
98.236
 21
222.8059999999999
 31
0
  0
LINE
  8
1
 62
7
 10
98.236
 20
509.8059999999999
 30
0
 11
-86.764
 21
509.806
 31
0
  0
LINE
  8
1
 62
2
 10
103.236
 20
514.806
 30
0
 11
-106.764
 21
514.8059999999998
 31
0
  0
LINE
  8
1
 62
2
 10
-106.764
 20
366.306
 30
0
 11
-91.764
 21
366.306
 31
0
  0
LINE
  8
1
 62
7
 10
-86.764
 20
222.8059999999999
 30
0
 11
-86.764
 21
509.806
 31
0
  0
LINE
  8
1
 62
2
 10
-106.764
 20
217.8059999999999
 30
0
 11
103.236
 21
217.806
 31
0
  0
LINE
  8
1
 62
7
 10
21.41100000000001
 20
261.606
 30
0
 11
21.41100000000001
 21
223.0559999999999
 31
0
  0
LINE
  8
1
 62
7
 10
5.111
 20
245.3059999999999
 30
0
 11
5.111
 21
223.0559999999999
 31
0
  0
LINE
  8
1
 62
7
 10
21.41100000000001
 20
253.5809999999999
 30
0
 11
97.98599999999998
 21
253.5809999999999
 31
0
  0
LINE
  8
1
 62
2
 10
21.41100000000001
 20
227.0059999999999
 30
0
 11
71.89644415897851
 21
227.0059999999999
 31
0
  0
LINE
  8
1
 62
2
 10
21.41100000000001
 20
231.0809999999999
 30
0
 11
71.89644415897851
 21
231.0809999999999
 31
0
  0
LINE
  8
1
 62
7
 10
97.986
 20
245.4309999999999
 30
0
 11
21.41100000000013
 21
245.4309999999999
 31
0
  0
LINE
  8
1
 62
4
 10
-20.889
 20
257.6559999999999
 30
0
 11
21.16100000000001
 21
257.6559999999999
 31
0
  0
LINE
  8
1
 62
2
 10
-47.389
 20
261.606
 30
0
 11
-47.389
 21
223.0559999999999
 31
0
  0
LINE
  8
1
 62
2
 10
-71.264
 20
261.606
 30
0
 11
-71.264
 21
223.0559999999999
 31
0
  0
LINE
  8
1
 62
2
 10
-82.264
 20
261.606
 30
0
 11
-82.264
 21
223.0559999999999
 31
0
  0
LINE
  8
1
 62
2
 10
-86.514
 20
257.6559999999999
 30
0
 11
-21.139
 21
257.6559999999999
 31
0
  0
LINE
  8
1
 62
2
 10
-86.514
 20
249.5059999999999
 30
0
 11
-20.889
 21
249.5059999999999
 31
0
  0
LINE
  8
1
 62
7
 10
-86.764
 20
222.8059999999999
 30
0
 11
98.236
 21
222.8059999999999
 31
0
  0
LINE
  8
1
 62
7
 10
-86.514
 20
223.0559999999999
 30
0
 11
97.986
 21
223.0559999999999
 31
0
  0
LINE
  8
1
 62
7
 10
-86.514
 20
261.606
 30
0
 11
97.98600000000012
 21
261.606
 31
0
  0
LINE
  8
1
 62
7
 10
-20.889
 20
261.606
 30
0
 11
-20.889
 21
223.0559999999999
 31
0
  0
LINE
  8
1
 62
7
 10
5.361
 20
245.3059999999999
 30
0
 11
5.361
 21
223.0559999999999
 31
0
  0
LINE
  8
1
 62
7
 10
21.16100000000001
 20
261.606
 30
0
 11
21.16100000000001
 21
223.0559999999999
 31
0
  0
LINE
  8
1
 62
2
 10
-86.514
 20
253.5809999999999
 30
0
 11
21.16100000000001
 21
253.5809999999999
 31
0
  0
LINE
  8
1
 62
2
 10
-34.264
 20
261.606
 30
0
 11
-34.264
 21
223.0559999999999
 31
0
  0
LINE
  8
1
 62
7
 10
71.89644415897851
 20
223.0559999999999
 30
0
 11
71.89644415897851
 21
245.4309999999999
 31
0
  0
LINE
  8
1
 62
7
 10
97.986
 20
235.1559999999999
 30
0
 11
21.41100000000001
 21
235.1559999999999
 31
0
  0
LINE
  8
1
 62
2
 10
-86.764
 20
509.806
 30
0
 11
-91.764
 21
509.806
 31
0
  0
LINE
  8
1
 62
2
 10
-91.764
 20
484.806
 30
0
 11
-91.764
 21
509.806
 31
0
  0
LINE
  8
1
 62
2
 10
-91.764
 20
484.806
 30
0
 11
-86.764
 21
484.806
 31
0
  0
LINE
  8
1
 62
2
 10
-91.764
 20
489.806
 30
0
 11
-86.764
 21
489.806
 31
0
  0
LINE
  8
1
 62
2
 10
-91.764
 20
494.806
 30
0
 11
-86.764
 21
494.806
 31
0
  0
LINE
  8
1
 62
2
 10
-91.764
 20
499.806
 30
0
 11
-86.764
 21
499.806
 31
0
  0
LINE
  8
1
 62
2
 10
-86.764
 20
504.806
 30
0
 11
-91.764
 21
504.806
 31
0
  0
LINE
  8
1
 62
2
 10
-60.514
 20
261.856
 30
0
 11
-60.514
 21
223.0559999999999
 31
0
  0
LINE
  8
1
 62
2
 10
-21.139
 20
245.431
 30
0
 11
-86.514
 21
245.431
 31
0
  0
LINE
  8
1
 62
4
 10
-11.264
 20
261.606
 30
0
 11
-11.264
 21
245.5559999999999
 31
0
  0
LINE
  8
1
 62
2
 10
1.486
 20
261.606
 30
0
 11
1.486
 21
245.5559999999999
 31
0
  0
LINE
  8
1
 62
7
 10
-20.889
 20
245.5559999999999
 30
0
 11
21.16100000000001
 21
245.5559999999999
 31
0
  0
LINE
  8
1
 62
7
 10
-20.889
 20
245.3059999999999
 30
0
 11
21.16100000000001
 21
245.3059999999999
 31
0
  0
LINE
  8
1
 62
7
 10
59.69849999999999
 20
261.606
 30
0
 11
59.69849999999999
 21
253.5809999999999
 31
0
  0
LINE
  8
1
 62
2
 10
-21.139
 20
241.356
 30
0
 11
-86.514
 21
241.356
 31
0
  0
LINE
  8
1
 62
2
 10
-21.139
 20
237.2809999999999
 30
0
 11
-86.514
 21
237.281
 31
0
  0
LINE
  8
1
 62
2
 10
-21.139
 20
233.2059999999999
 30
0
 11
-86.514
 21
233.2059999999999
 31
0
  0
LINE
  8
1
 62
4
 10
-21.139
 20
229.1309999999999
 30
0
 11
-86.514
 21
229.1309999999999
 31
0
  0
LINE
  8
1
 62
7
 10
-21.139
 20
261.8560000000001
 30
0
 11
-21.139
 21
223.0559999999999
 31
0
  0
LINE
  8
1
 62
7
 10
-86.514
 20
261.606
 30
0
 11
-86.514
 21
223.0559999999999
 31
0
  0
TEXT
  8
1
 62
4
 10
-91.17318690036849
 20
500.316153043301
 30
0
 40
3.5
  1
02
 41
0.7000000000000001
 73
3
 11
-91.17318690036849
 21
503.816153043301
 31
0
  0
TEXT
  8
1
 62
4
 10
-91.17318690036849
 20
505.316153043301
 30
0
 40
3.5
  1
B
 41
0.7000000000000001
 73
3
 11
-91.17318690036849
 21
508.816153043301
 31
0
  0
TEXT
  8
SCHRIFTFELD
 62
2
 10
55.94850000000002
 20
254.8059999999999
 30
0
 40
2.5
  1
 
 41
0.7
 72
2
 73
2
 11
57.69850000000002
 21
256.0559999999999
 31
0
  0
TEXT
  8
SCHRIFTFELD
 62
4
 10
12.03600000000003
 20
229.2509999999999
 30
0
 40
3.5
  1
 
 41
0.7000000000000001
 72
1
 73
2
 11
13.26100000000003
 21
231.0009999999999
 31
0
  0
TEXT
  8
SCHRIFTFELD
 62
7
 10
34.406
 20
237.7934999999999
 30
0
 40
5
  1
9040017
 41
0.7
 72
1
 73
2
 11
46.656
 21
240.2934999999999
 31
0
  0
TEXT
  8
SCHRIFTFELD
 62
7
 10
8.01100000000001
 20
235.6459999999999
 30
0
 40
5
  1
1:1
 41
0.7
 72
1
 73
2
 11
13.26100000000001
 21
238.1459999999999
 31
0
  0
TEXT
  8
SCHRIFTFELD
 62
4
 10
38.8735
 20
248.3059999999999
 30
0
 40
3.5
  1
HALTEWINKEL TEIL3
 41
0.7000000000000001
 72
1
 73
2
 11
59.6985
 21
250.0559999999999
 31
0
  0
TEXT
  8
SCHRIFTFELD
 62
4
 10
88.63600000000001
 20
254.3059999999999
 30
0
 40
3.5
  1
PLS
 41
0.7000000000000001
 72
2
 73
2
 11
95.986
 21
256.0559999999999
 31
0
  0
TEXT
  8
SCHRIFTFELD
 62
2
 10
-11.139
 20
254.3684999999999
 30
0
 40
2.5
  1
1994-01-18
 41
0.5
 72
1
 73
2
 11
-4.889
 21
255.6184999999999
 31
0
  0
TEXT
  8
SCHRIFTFELD
 62
2
 10
6.08599999999999
 20
254.3684999999999
 30
0
 40
2.5
  1
roth_s
 41
0.7
 72
1
 73
2
 11
11.33599999999999
 21
255.6184999999999
 31
0
  0
TEXT
  8
SCHRIFTFELD
 62
2
 10
-85.264
 20
229.9184999999999
 30
0
 40
2.5
  1
 
 41
0.7
 72
1
 73
2
 11
-84.389
 21
231.1684999999999
 31
0
  0
TEXT
  8
SCHRIFTFELD
 62
2
 10
-77.639
 20
229.9184999999999
 30
0
 40
2.5
  1
 
 41
0.7
 72
1
 73
2
 11
-76.764
 21
231.1684999999999
 31
0
  0
TEXT
  8
SCHRIFTFELD
 62
2
 10
-66.514
 20
229.9184999999999
 30
0
 40
2.5
  1
 
 41
0.5
 72
1
 73
2
 11
-65.889
 21
231.1684999999999
 31
0
  0
TEXT
  8
SCHRIFTFELD
 62
2
 10
-54.8265
 20
229.9184999999999
 30
0
 40
2.5
  1
 
 41
0.7
 72
1
 73
2
 11
-53.9515
 21
231.1684999999999
 31
0
  0
TEXT
  8
SCHRIFTFELD
 62
2
 10
-85.264
 20
233.9934999999999
 30
0
 40
2.5
  1
 
 41
0.7
 72
1
 73
2
 11
-84.389
 21
235.2434999999999
 31
0
  0
TEXT
  8
SCHRIFTFELD
 62
2
 10
-77.639
 20
233.9934999999999
 30
0
 40
2.5
  1
 
 41
0.7
 72
1
 73
2
 11
-76.764
 21
235.2434999999999
 31
0
  0
TEXT
  8
SCHRIFTFELD
 62
2
 10
-66.514
 20
233.9934999999999
 30
0
 40
2.5
  1
 
 41
0.5
 72
1
 73
2
 11
-65.889
 21
235.2434999999999
 31
0
  0
TEXT
  8
SCHRIFTFELD
 62
2
 10
-54.8265
 20
233.9934999999999
 30
0
 40
2.5
  1
 
 41
0.7
 72
1
 73
2
 11
-53.9515
 21
235.2434999999999
 31
0
  0
TEXT
  8
SCHRIFTFELD
 62
2
 10
-85.264
 20
238.0684999999999
 30
0
 40
2.5
  1
 
 41
0.7
 72
1
 73
2
 11
-84.389
 21
239.3184999999999
 31
0
  0
TEXT
  8
SCHRIFTFELD
 62
2
 10
-77.639
 20
238.0684999999999
 30
0
 40
2.5
  1
 
 41
0.7
 72
1
 73
2
 11
-76.764
 21
239.3184999999999
 31
0
  0
TEXT
  8
SCHRIFTFELD
 62
2
 10
-66.514
 20
238.0684999999999
 30
0
 40
2.5
  1
 
 41
0.5
 72
1
 73
2
 11
-65.889
 21
239.3184999999999
 31
0
  0
TEXT
  8
SCHRIFTFELD
 62
2
 10
-54.8265
 20
238.0684999999999
 30
0
 40
2.5
  1
 
 41
0.7
 72
1
 73
2
 11
-53.9515
 21
239.3184999999999
 31
0
  0
TEXT
  8
SCHRIFTFELD
 62
2
 10
-85.264
 20
242.1434999999999
 30
0
 40
2.5
  1
 
 41
0.7
 72
1
 73
2
 11
-84.389
 21
243.3934999999999
 31
0
  0
TEXT
  8
SCHRIFTFELD
 62
2
 10
-77.639
 20
242.1434999999999
 30
0
 40
2.5
  1
 
 41
0.7
 72
1
 73
2
 11
-76.764
 21
243.3934999999999
 31
0
  0
TEXT
  8
SCHRIFTFELD
 62
2
 10
-66.514
 20
242.1434999999999
 30
0
 40
2.5
  1
 
 41
0.5
 72
1
 73
2
 11
-65.889
 21
243.3934999999999
 31
0
  0
TEXT
  8
SCHRIFTFELD
 62
2
 10
-54.8265
 20
242.1434999999999
 30
0
 40
2.5
  1
 
 41
0.7
 72
1
 73
2
 11
-53.9515
 21
243.3934999999999
 31
0
  0
TEXT
  8
SCHRIFTFELD
 62
2
 10
-85.264
 20
246.2184999999999
 30
0
 40
2.5
  1
 
 41
0.7
 72
1
 73
2
 11
-84.389
 21
247.4684999999999
 31
0
  0
TEXT
  8
SCHRIFTFELD
 62
2
 10
-77.639
 20
246.2184999999999
 30
0
 40
2.5
  1
 
 41
0.7
 72
1
 73
2
 11
-76.764
 21
247.4684999999999
 31
0
  0
TEXT
  8
SCHRIFTFELD
 62
2
 10
-66.514
 20
246.2184999999999
 30
0
 40
2.5
  1
 
 41
0.5
 72
1
 73
2
 11
-65.889
 21
247.4684999999999
 31
0
  0
TEXT
  8
SCHRIFTFELD
 62
2
 10
-54.8265
 20
246.2184999999999
 30
0
 40
2.5
  1
 
 41
0.7
 72
1
 73
2
 11
-53.9515
 21
247.4684999999999
 31
0
  0
TEXT
  8
SCHRIFTFELD
 62
2
 10
-85.264
 20
250.2934999999999
 30
0
 40
2.5
  1
 
 41
0.7
 72
1
 73
2
 11
-84.389
 21
251.5434999999999
 31
0
  0
TEXT
  8
SCHRIFTFELD
 62
2
 10
-77.639
 20
250.2934999999999
 30
0
 40
2.5
  1
 
 41
0.7
 72
1
 73
2
 11
-76.764
 21
251.5434999999999
 31
0
  0
TEXT
  8
SCHRIFTFELD
 62
2
 10
-66.514
 20
250.2934999999999
 30
0
 40
2.5
  1
 
 41
0.5
 72
1
 73
2
 11
-65.889
 21
251.5434999999999
 31
0
  0
TEXT
  8
SCHRIFTFELD
 62
2
 10
-54.8265
 20
250.2934999999999
 30
0
 40
2.5
  1
 
 41
0.7
 72
1
 73
2
 11
-53.9515
 21
251.5434999999999
 31
0
  0
TEXT
  8
SCHRIFTFELD
 62
2
 10
-85.264
 20
254.3684999999999
 30
0
 40
2.5
  1
 
 41
0.7
 72
1
 73
2
 11
-84.389
 21
255.6184999999999
 31
0
  0
TEXT
  8
SCHRIFTFELD
 62
2
 10
-77.639
 20
254.3684999999999
 30
0
 40
2.5
  1
 
 41
0.7
 72
1
 73
2
 11
-76.764
 21
255.6184999999999
 31
0
  0
TEXT
  8
SCHRIFTFELD
 62
2
 10
-66.514
 20
254.3684999999999
 30
0
 40
2.5
  1
 
 41
0.5
 72
1
 73
2
 11
-65.889
 21
255.6184999999999
 31
0
  0
TEXT
  8
SCHRIFTFELD
 62
2
 10
-54.8265
 20
254.3684999999999
 30
0
 40
2.5
  1
 
 41
0.7
 72
1
 73
2
 11
-53.9515
 21
255.6184999999999
 31
0
  0
TEXT
  8
SCHRIFTFELD
 62
2
 10
-85.264
 20
258.4434999999999
 30
0
 40
2.5
  1
 
 41
0.7
 72
1
 73
2
 11
-84.389
 21
259.6934999999999
 31
0
  0
TEXT
  8
SCHRIFTFELD
 62
2
 10
-77.639
 20
258.4434999999999
 30
0
 40
2.5
  1
 
 41
0.7
 72
1
 73
2
 11
-76.764
 21
259.6934999999999
 31
0
  0
TEXT
  8
SCHRIFTFELD
 62
2
 10
-66.514
 20
258.4434999999999
 30
0
 40
2.5
  1
 
 41
0.5
 72
1
 73
2
 11
-65.889
 21
259.6934999999999
 31
0
  0
TEXT
  8
SCHRIFTFELD
 62
2
 10
-54.8265
 20
258.4434999999999
 30
0
 40
2.5
  1
 
 41
0.7
 72
1
 73
2
 11
-53.9515
 21
259.6934999999999
 31
0
  0
TEXT
  8
SCHRIFTFELD
 62
2
 10
-41.4515
 20
258.4434999999999
 30
0
 40
2.5
  1
 
 41
0.5
 72
1
 73
2
 11
-40.8265
 21
259.6934999999999
 31
0
  0
TEXT
  8
SCHRIFTFELD
 62
2
 10
-41.4515
 20
254.3684999999999
 30
0
 40
2.5
  1
 
 41
0.5
 72
1
 73
2
 11
-40.8265
 21
255.6184999999999
 31
0
  0
TEXT
  8
SCHRIFTFELD
 62
2
 10
-41.4515
 20
250.2934999999999
 30
0
 40
2.5
  1
 
 41
0.5
 72
1
 73
2
 11
-40.8265
 21
251.5434999999999
 31
0
  0
TEXT
  8
SCHRIFTFELD
 62
2
 10
-41.4515
 20
246.2184999999999
 30
0
 40
2.5
  1
 
 41
0.5
 72
1
 73
2
 11
-40.8265
 21
247.4684999999999
 31
0
  0
TEXT
  8
SCHRIFTFELD
 62
2
 10
-41.4515
 20
242.1434999999999
 30
0
 40
2.5
  1
 
 41
0.5
 72
1
 73
2
 11
-40.8265
 21
243.3934999999999
 31
0
  0
TEXT
  8
SCHRIFTFELD
 62
2
 10
-41.4515
 20
238.0684999999999
 30
0
 40
2.5
  1
 
 41
0.5
 72
1
 73
2
 11
-40.8265
 21
239.3184999999999
 31
0
  0
TEXT
  8
SCHRIFTFELD
 62
2
 10
-41.4515
 20
233.9934999999999
 30
0
 40
2.5
  1
 
 41
0.5
 72
1
 73
2
 11
-40.8265
 21
235.2434999999999
 31
0
  0
TEXT
  8
SCHRIFTFELD
 62
2
 10
-41.4515
 20
229.9184999999999
 30
0
 40
2.5
  1
 
 41
0.5
 72
1
 73
2
 11
-40.8265
 21
231.1684999999999
 31
0
  0
TEXT
  8
SCHRIFTFELD
 62
2
 10
-11.139
 20
250.2934999999999
 30
0
 40
2.5
  1
1994-01-18
 41
0.5
 72
1
 73
2
 11
-4.889
 21
251.5434999999999
 31
0
  0
TEXT
  8
SCHRIFTFELD
 62
2
 10
5.21099999999999
 20
250.2934999999999
 30
0
 40
2.5
  1
boeckel
 41
0.7
 72
1
 73
2
 11
11.33599999999999
 21
251.5434999999999
 31
0
  0
TEXT
  8
SCHRIFTFELD
 62
2
 10
40.8964441589785
 20
231.8684999999999
 30
0
 40
2.5
  1
 
 41
0.7
 73
2
 11
40.8964441589785
 21
233.1184999999999
 31
0
  0
TEXT
  8
SCHRIFTFELD
 62
2
 10
40.8964441589785
 20
227.7934999999999
 30
0
 40
2.5
  1
 
 41
0.7
 73
2
 11
40.8964441589785
 21
229.0434999999999
 31
0
  0
TEXT
  8
SCHRIFTFELD
 62
2
 10
40.0214441589785
 20
223.7184999999999
 30
0
 40
2.5
  1
 
 41
0.7
 72
1
 73
2
 11
40.8964441589785
 21
224.9684999999999
 31
0
  0
TEXT
  8
1
 62
4
 10
73.1605035144391
 20
235.929242077873
 30
0
 40
3.5
  1
1
 41
0.7000000000000001
 72
2
 11
75.6105035144391
 21
235.929242077873
 31
0
  0
TEXT
  8
1
 62
4
 10
81.9577956195038
 20
235.838534767933
 30
0
 40
3.5
  1
1
 41
0.7000000000000001
  0
TEXT
  8
SCHRIFTFELD
 62
2
 10
-5.514
 20
246.2184999999999
 30
0
 40
2.5
  1
 
 41
0.5
 72
1
 73
2
 11
-4.889
 21
247.4684999999999
 31
0
  0
TEXT
  8
SCHRIFTFELD
 62
2
 10
10.46099999999999
 20
246.2184999999999
 30
0
 40
2.5
  1
 
 41
0.7
 72
1
 73
2
 11
11.33599999999999
 21
247.4684999999999
 31
0
  0
TEXT
  8
SCHRIFTFELD
 62
2
 10
-28.57649999999999
 20
229.9184999999999
 30
0
 40
2.5
  1
 
 41
0.7
 72
1
 73
2
 11
-27.70149999999999
 21
231.1684999999999
 31
0
  0
TEXT
  8
SCHRIFTFELD
 62
2
 10
-28.57649999999999
 20
258.4434999999999
 30
0
 40
2.5
  1
 
 41
0.7
 72
1
 73
2
 11
-27.70149999999999
 21
259.6934999999999
 31
0
  0
TEXT
  8
SCHRIFTFELD
 62
2
 10
-28.57649999999999
 20
254.3684999999999
 30
0
 40
2.5
  1
 
 41
0.7
 72
1
 73
2
 11
-27.70149999999999
 21
255.6184999999999
 31
0
  0
TEXT
  8
SCHRIFTFELD
 62
2
 10
-28.57649999999999
 20
250.2934999999999
 30
0
 40
2.5
  1
 
 41
0.7
 72
1
 73
2
 11
-27.70149999999999
 21
251.5434999999999
 31
0
  0
TEXT
  8
SCHRIFTFELD
 62
2
 10
-28.57649999999999
 20
246.2184999999999
 30
0
 40
2.5
  1
 
 41
0.7
 72
1
 73
2
 11
-27.70149999999999
 21
247.4684999999999
 31
0
  0
TEXT
  8
SCHRIFTFELD
 62
2
 10
-28.57649999999999
 20
242.1434999999999
 30
0
 40
2.5
  1
 
 41
0.7
 72
1
 73
2
 11
-27.70149999999999
 21
243.3934999999999
 31
0
  0
TEXT
  8
SCHRIFTFELD
 62
2
 10
-28.57649999999999
 20
238.0684999999999
 30
0
 40
2.5
  1
 
 41
0.7
 72
1
 73
2
 11
-27.70149999999999
 21
239.3184999999999
 31
0
  0
TEXT
  8
SCHRIFTFELD
 62
2
 10
-28.57649999999999
 20
233.9934999999999
 30
0
 40
2.5
  1
 
 41
0.7
 72
1
 73
2
 11
-27.70149999999999
 21
235.2434999999999
 31
0
  0
TEXT
  8
1
 62
2
 10
-42.9265
 20
225.1934999999999
 30
0
 40
2
  1
Tag
 41
0.7
 72
1
 73
2
 11
-40.8265
 21
226.1934999999999
 31
0
  0
TEXT
  8
1
 62
2
 10
-31.2015
 20
225.1934999999999
 30
0
 40
2
  1
Gepr.
 41
0.7
 72
1
 73
2
 11
-27.7015
 21
226.1934999999999
 31
0
  0
TEXT
  8
1
 62
2
 10
-19.61399999999999
 20
246.4684999999999
 30
0
 40
2
  1
Freigabe
 41
0.6
 73
2
 11
-19.61399999999999
 21
247.4684999999999
 31
0
  0
TEXT
  8
1
 62
4
 10
78.30148704263151
 20
235.8809999999999
 30
0
 40
3.5
  1
v.   Blatt
 41
0.7000000000000001
  0
TEXT
  8
1
 62
2
 10
72.89644415897851
 20
231.8997499999999
 30
0
 40
2
  1
Verteildatum:
 41
0.7
 73
2
 11
72.89644415897851
 21
232.8997499999999
 31
0
  0
TEXT
  8
1
 62
2
 10
72.89644415897851
 20
241.37475
 30
0
 40
2
  1
Blatt-Nr.
 41
0.7
 73
2
 11
72.89644415897851
 21
242.37475
 31
0
  0
TEXT
  8
1
 62
2
 10
60.69849999999999
 20
258.59975
 30
0
 40
2
  1
Norm-Typ/DIN
 41
0.7
 73
2
 11
60.69849999999999
 21
259.59975
 31
0
  0
TEXT
  8
1
 62
2
 10
-99.7776027247957
 20
223.6452370572207
 30
0
 40
1.8
  1
Vervielfaeltigung dieser Unterlage sowie Verwertung und Mitteilung ihres
 50
90
 41
0.7
  0
TEXT
  8
1
 62
2
 10
-97.2054027247957
 20
223.6452370572207
 30
0
 40
1.8
  1
Inhaltes unzulaessig, soweit nicht ausdruecklich zugestanden. Zuwiderhand-
 50
90
 41
0.7
  0
TEXT
  8
1
 62
2
 10
-94.63320272479571
 20
223.6452370572207
 30
0
 40
1.8
  1
lungen sind strafbar und verpflichten zu Schadenersatz (LitUrhG, UWG, BGB).
 50
90
 41
0.7
  0
TEXT
  8
1
 62
2
 10
-92.06100272479571
 20
223.6452370572207
 30
0
 40
1.8
  1
Alle Rechte fuer den Fall der Patenterteilung oder GM-Eintragung vorbehalten.
 50
90
 41
0.7
  0
TEXT
  8
1
 62
2
 10
22.41100000000001
 20
228.0434999999999
 30
0
 40
2
  1
Ersatz fÏr:
 41
0.7
 73
2
 11
22.41100000000001
 21
229.0434999999999
 31
0
  0
TEXT
  8
1
 62
2
 10
-82.36399999999999
 20
225.1168529601892
 30
0
 40
2
  1
Ønderung
 41
0.7
 72
1
 73
2
 11
-76.764
 21
226.1168529601892
 31
0
  0
TEXT
  8
1
 62
2
 10
-19.61399999999999
 20
250.5434999999999
 30
0
 40
2
  1
Gepr.
 41
0.7
 73
2
 11
-19.61399999999999
 21
251.5434999999999
 31
0
  0
TEXT
  8
1
 62
2
 10
-19.61399999999999
 20
254.6185
 30
0
 40
2
  1
Gez.
 41
0.7
 73
2
 11
-19.61399999999999
 21
255.6185
 31
0
  0
TEXT
  8
1
 62
2
 10
-7.989
 20
258.84975
 30
0
 40
2
  1
Tag
 41
0.7
 72
1
 73
2
 11
-5.889
 21
259.84975
 31
0
  0
TEXT
  8
1
 62
2
 10
7.748500000000001
 20
258.84975
 30
0
 40
2
  1
Name
 41
0.7
 72
1
 73
2
 11
10.5485
 21
259.84975
 31
0
  0
TEXT
  8
1
 62
2
 10
-87.18899999999999
 20
225.1934999999999
 30
0
 40
2
  1
Ind.
 41
0.7
 72
1
 73
2
 11
-84.389
 21
226.1934999999999
 31
0
  0
TEXT
  8
1
 62
2
 10
-67.98899999999999
 20
225.1934999999999
 30
0
 40
2
  1
Tag
 41
0.7
 72
1
 73
2
 11
-65.889
 21
226.1934999999999
 31
0
  0
TEXT
  8
1
 62
2
 10
-56.7515
 20
225.1934999999999
 30
0
 40
2
  1
Name
 41
0.7
 72
1
 73
2
 11
-53.9515
 21
226.1934999999999
 31
0
  0
TEXT
  8
1
 62
2
 10
8.784070687121991
 20
242.3758383848883
 30
0
 40
2
  1
MaBstab:
 41
0.7
  0
TEXT
  8
1
 62
2
 10
22.41100000000001
 20
258.59975
 30
0
 40
2
  1
Werkstoff
 41
0.7
 73
2
 11
22.41100000000001
 21
259.59975
 31
0
  0
TEXT
  8
1
 62
2
 10
22.41100000000001
 20
223.9684999999999
 30
0
 40
2
  1
Ersetzt durch:
 41
0.7
 73
2
 11
22.41100000000001
 21
224.9684999999999
 31
0
  0
TEXT
  8
1
 62
2
 10
22.41100000000001
 20
232.1184999999999
 30
0
 40
2
  1
Ursprung:
 41
0.7
 73
2
 11
22.41100000000001
 21
233.1184999999999
 31
0
  0
INSERT
  8
0
  2
LOGO__SICK_AG
 10
-20.33402911299179
 20
236.5068407861929
 30
0
  0
INSERT
  8
0
  2
_ANSCHRIFT_WALDKIRCH
 10
5.111
 20
223.0559999999999
 30
0
  0
ENDBLK
  8
0
  0
BLOCK
  8
0
  2
STIFT_ZYL_
 70
0
 10
-24.3702537239862
 20
432.0563557233593
 30
0
  0
LINE
  8
1
 62
2
  6
DASHDOT
 10
-24.3702537239862
 20
435.0563557233593
 30
0
 11
-3.67580506669989
 21
435.0563557233593
 31
0
  0
LINE
  8
1
 62
1
 10
-12.05949806744353
 20
432.0563557233593
 30
0
 11
-21.05949806744358
 21
432.0563557233593
 31
0
  0
LINE
  8
1
 62
1
 10
-22.05949806744358
 20
437.0563557233592
 30
0
 11
-21.05949806744358
 21
438.0563557233593
 31
0
  0
LINE
  8
1
 62
1
 10
-22.05949806744358
 20
437.0417734715554
 30
0
 11
-22.05949806744358
 21
437.0563557233592
 31
0
  0
LINE
  8
1
 62
1
 10
-22.05949806744358
 20
434.5777243947841
 30
0
 11
-22.05949806744358
 21
435.0563557233593
 31
0
  0
LINE
  8
1
 62
1
 10
-21.05949806744358
 20
432.0563557233593
 30
0
 11
-22.05949806744358
 21
433.0563557233593
 31
0
  0
LINE
  8
1
 62
1
 10
-22.05949806744358
 20
436.9982393582113
 30
0
 11
-22.05949806744358
 21
437.0417734715554
 31
0
  0
LINE
  8
1
 62
1
 10
-22.05949806744358
 20
436.92638820873
 30
0
 11
-22.05949806744358
 21
436.9982393582113
 31
0
  0
LINE
  8
1
 62
1
 10
-22.05949806744358
 20
436.8272677746656
 30
0
 11
-22.05949806744358
 21
436.92638820873
 31
0
  0
LINE
  8
1
 62
1
 10
-22.05949806744358
 20
436.7023234551465
 30
0
 11
-22.05949806744358
 21
436.8272677746656
 31
0
  0
LINE
  8
1
 62
1
 10
-22.05949806744358
 20
436.5533772197015
 30
0
 11
-22.05949806744358
 21
436.7023234551465
 31
0
  0
LINE
  8
1
 62
1
 10
-22.05949806744358
 20
436.3826010398408
 30
0
 11
-22.05949806744358
 21
436.5533772197015
 31
0
  0
LINE
  8
1
 62
1
 10
-22.05949806744358
 20
436.1924852168215
 30
0
 11
-22.05949806744358
 21
436.3826010398408
 31
0
  0
LINE
  8
1
 62
1
 10
-22.05949806744358
 20
435.9858020674468
 30
0
 11
-22.05949806744358
 21
436.1924852168215
 31
0
  0
LINE
  8
1
 62
1
 10
-22.05949806744358
 20
435.7655654974443
 30
0
 11
-22.05949806744358
 21
435.9858020674468
 31
0
  0
LINE
  8
1
 62
1
 10
-22.05949806744358
 20
435.5349870519344
 30
0
 11
-22.05949806744358
 21
435.7655654974443
 31
0
  0
LINE
  8
1
 62
1
 10
-22.05949806744358
 20
435.2974290838699
 30
0
 11
-22.05949806744358
 21
435.5349870519344
 31
0
  0
LINE
  8
1
 62
1
 10
-22.05949806744358
 20
435.0563557233593
 30
0
 11
-22.05949806744358
 21
435.2974290838699
 31
0
  0
LINE
  8
1
 62
1
 10
-21.05949806744358
 20
438.0563557233593
 30
0
 11
-12.05949806744353
 21
438.0563557233593
 31
0
  0
LINE
  8
1
 62
1
 10
-22.05949806744358
 20
434.3471459492742
 30
0
 11
-22.05949806744358
 21
434.5777243947841
 31
0
  0
LINE
  8
1
 62
1
 10
-22.05949806744358
 20
434.1269093792718
 30
0
 11
-22.05949806744358
 21
434.3471459492742
 31
0
  0
LINE
  8
1
 62
1
 10
-22.05949806744358
 20
433.920226229897
 30
0
 11
-22.05949806744358
 21
434.1269093792718
 31
0
  0
LINE
  8
1
 62
1
 10
-22.05949806744358
 20
433.7301104068777
 30
0
 11
-22.05949806744358
 21
433.920226229897
 31
0
  0
LINE
  8
1
 62
1
 10
-22.05949806744358
 20
433.5593342270171
 30
0
 11
-22.05949806744358
 21
433.7301104068777
 31
0
  0
LINE
  8
1
 62
1
 10
-22.05949806744358
 20
433.410387991572
 30
0
 11
-22.05949806744358
 21
433.5593342270171
 31
0
  0
LINE
  8
1
 62
1
 10
-22.05949806744358
 20
433.2854436720528
 30
0
 11
-22.05949806744358
 21
433.410387991572
 31
0
  0
LINE
  8
1
 62
1
 10
-22.05949806744358
 20
433.1863232379885
 30
0
 11
-22.05949806744358
 21
433.2854436720528
 31
0
  0
LINE
  8
1
 62
1
 10
-22.05949806744358
 20
433.1144720885072
 30
0
 11
-22.05949806744358
 21
433.1863232379885
 31
0
  0
LINE
  8
1
 62
1
 10
-22.05949806744358
 20
433.0709379751632
 30
0
 11
-22.05949806744358
 21
433.1144720885072
 31
0
  0
LINE
  8
1
 62
1
 10
-22.05949806744358
 20
433.0563557233593
 30
0
 11
-22.05949806744358
 21
433.0709379751632
 31
0
  0
LINE
  8
1
 62
1
 10
-21.05949806744358
 20
435.0563557233593
 30
0
 11
-21.05949806744358
 21
438.0563557233593
 31
0
  0
LINE
  8
1
 62
1
 10
-21.05949806744358
 20
432.0563557233593
 30
0
 11
-21.05949806744358
 21
435.0563557233593
 31
0
  0
LINE
  8
1
 62
1
 10
-21.05949806744358
 20
432.0563557233593
 30
0
 11
-21.05949806744358
 21
438.0563557233593
 31
0
  0
LINE
  8
1
 62
1
 10
-7.059498067443585
 20
438.0563557233593
 30
0
 11
-7.059498067443585
 21
432.0563557233593
 31
0
  0
LINE
  8
1
 62
1
 10
-12.05949806744353
 20
438.0563557233593
 30
0
 11
-7.059498067443585
 21
438.0563557233593
 31
0
  0
LINE
  8
1
 62
1
 10
-6.059498067443585
 20
433.0563557233592
 30
0
 11
-7.059498067443585
 21
432.0563557233593
 31
0
  0
LINE
  8
1
 62
1
 10
-6.059498067443585
 20
435.0563557233593
 30
0
 11
-6.059498067443585
 21
433.0563557233592
 31
0
  0
LINE
  8
1
 62
1
 10
-6.059498067443599
 20
437.0563557233593
 30
0
 11
-6.059498067443585
 21
435.0563557233593
 31
0
  0
LINE
  8
1
 62
1
 10
-7.059498067443585
 20
438.0563557233593
 30
0
 11
-6.059498067443599
 21
437.0563557233593
 31
0
  0
LINE
  8
1
 62
1
 10
-7.059498067443585
 20
432.0563557233593
 30
0
 11
-12.05949806744353
 21
432.0563557233593
 31
0
  0
LINE
  8
1
 62
1
 10
-7.059498067443585
 20
435.0563557233593
 30
0
 11
-7.059498067443585
 21
432.0563557233593
 31
0
  0
LINE
  8
1
 62
1
 10
-7.059498067443585
 20
438.0563557233593
 30
0
 11
-7.059498067443585
 21
435.0563557233593
 31
0
  0
ENDBLK
  8
0
  0
BLOCK
  8
1
  2
*X3
 70
1
 10
0
 20
0
 30
0
  0
LINE
  8
1
 62
2
 10
-22.05949806744366
 20
431.9030554543198
 30
0
 11
-21.90619779840417
 21
432.0563557233593
 31
0
  0
LINE
  8
1
 62
2
 10
-22.05949806744366
 20
430.4888418919467
 30
0
 11
-20.49198423603108
 21
432.0563557233593
 31
0
  0
LINE
  8
1
 62
2
 10
-22.05949806744366
 20
429.0746283295736
 30
0
 11
-19.07777067365798
 21
432.0563557233593
 31
0
  0
LINE
  8
1
 62
2
 10
-22.05949806744366
 20
427.6604147672005
 30
0
 11
-17.66355711128488
 21
432.0563557233593
 31
0
  0
LINE
  8
1
 62
2
 10
-21.47138721599697
 20
426.8343120562741
 30
0
 11
-16.24934354891179
 21
432.0563557233593
 31
0
  0
LINE
  8
1
 62
2
 10
-20.26414238498356
 20
426.6273433249145
 30
0
 11
-14.83512998653869
 21
432.0563557233593
 31
0
  0
LINE
  8
1
 62
2
 10
-18.93179961947305
 20
426.5454725280518
 30
0
 11
-13.4209164241656
 21
432.0563557233593
 31
0
  0
LINE
  8
1
 62
2
 10
-17.21882667402431
 20
426.8442319111275
 30
0
 11
-12.05949806744357
 21
432.0035605177083
 31
0
  0
LINE
  8
1
 62
2
 10
-14.96198040163281
 20
427.6868646211459
 30
0
 11
-12.05949806744357
 21
430.5893469553351
 31
0
  0
LINE
  8
1
 62
2
 10
-13.28381305383829
 20
427.9508184065674
 30
0
 11
-12.05949806744357
 21
429.175133392962
 31
0
  0
LINE
  8
1
 62
2
 10
-12.13329334297856
 20
427.687124555054
 30
0
 11
-12.05949806744357
 21
427.7609198305889
 31
0
  0
ENDBLK
  8
0
  0
BLOCK
  8
1
  2
*X4
 70
1
 10
0
 20
0
 30
0
  0
LINE
  8
1
 62
2
 10
-22.05949806744366
 20
438.9741232661853
 30
0
 11
-18.31154297845373
 21
442.7220783551752
 31
0
  0
LINE
  8
1
 62
2
 10
-21.5630520478966
 20
438.0563557233593
 30
0
 11
-16.48070618087721
 21
443.1387015903787
 31
0
  0
LINE
  8
1
 62
2
 10
-20.1488384855235
 20
438.0563557233593
 30
0
 11
-15.23961132473397
 21
442.9655828841488
 31
0
  0
LINE
  8
1
 62
2
 10
-18.73462492315041
 20
438.0563557233593
 30
0
 11
-14.20167044348875
 21
442.5893102030209
 31
0
  0
LINE
  8
1
 62
2
 10
-17.32041136077731
 20
438.0563557233593
 30
0
 11
-13.25198444147944
 21
442.1247826426571
 31
0
  0
LINE
  8
1
 62
2
 10
-15.90619779840421
 20
438.0563557233593
 30
0
 11
-12.34192182117067
 21
441.6206317005928
 31
0
  0
LINE
  8
1
 62
2
 10
-14.49198423603112
 20
438.0563557233593
 30
0
 11
-12.05949806744354
 21
440.4888418919469
 31
0
  0
LINE
  8
1
 62
2
 10
-13.07777067365802
 20
438.0563557233593
 30
0
 11
-12.05949806744354
 21
439.0746283295738
 31
0
  0
ENDBLK
  8
0
  0
BLOCK
  8
0
  2
HALTERUNG_TEIL3
 70
0
 10
-106.7641405434308
 20
217.805608658258
 30
0
  0
INSERT
  8
1
  2
*X3
 10
0
 20
0
 30
0
  0
INSERT
  8
1
  2
*X4
 10
0
 20
0
 30
0
  0
LINE
  8
1
 62
4
 10
-12.05949806744353
 20
427.663114625881
 30
0
 11
-12.05949806744353
 21
432.0563557233593
 31
0
  0
LINE
  8
1
 62
4
 10
-22.05949806744366
 20
426.954656023199
 30
0
 11
-22.05949806744366
 21
432.0563557233593
 31
0
  0
LINE
  8
1
 62
4
 10
-12.05949806744353
 20
441.459413730739
 30
0
 11
-12.05949806744353
 21
486.0563557233592
 31
0
  0
LINE
  8
1
 62
4
 10
-22.05949806744364
 20
440.266220294643
 30
0
 11
-22.0594980674436
 21
486.0563557233593
 31
0
  0
LINE
  8
1
 62
4
 10
-22.05949806744366
 20
432.0563557233593
 30
0
 11
-22.05949806744365
 21
438.0563557233593
 31
0
  0
LINE
  8
1
 62
4
 10
-12.05949806744353
 20
432.0563557233593
 30
0
 11
-22.05949806744366
 21
432.0563557233593
 31
0
  0
LINE
  8
1
 62
4
 10
-22.05949806744365
 20
438.0563557233593
 30
0
 11
-22.05949806744364
 21
440.266220294643
 31
0
  0
LINE
  8
1
 62
4
 10
-12.05949806744353
 20
438.0563557233593
 30
0
 11
-12.05949806744353
 21
441.459413730739
 31
0
  0
LINE
  8
1
 62
4
 10
-12.05949806744353
 20
438.0563557233593
 30
0
 11
-22.05949806744365
 21
438.0563557233593
 31
0
  0
LINE
  8
1
 62
4
 10
43.9405019325564
 20
310.3611265098147
 30
0
 11
43.9405019325564
 21
310.3392736862768
 31
0
  0
LINE
  8
1
 62
4
 10
43.9405019325564
 20
310.3392736862768
 30
0
 11
43.9405019325564
 21
310.2740333856557
 31
0
  0
LINE
  8
1
 62
4
 10
43.9405019325564
 20
310.2740333856557
 30
0
 11
43.9405019325564
 21
310.1663554854769
 31
0
  0
LINE
  8
1
 62
4
 10
43.9405019325564
 20
310.1663554854769
 30
0
 11
43.9405019325564
 21
310.0178077408919
 31
0
  0
LINE
  8
1
 62
4
 10
43.9405019325564
 20
310.0178077408919
 30
0
 11
43.9405019325564
 21
309.8305529586737
 31
0
  0
LINE
  8
1
 62
4
 10
43.9405019325564
 20
309.8305529586737
 30
0
 11
43.9405019325564
 21
309.6073175074548
 31
0
  0
LINE
  8
1
 62
4
 10
43.9405019325564
 20
309.6073175074548
 30
0
 11
43.9405019325564
 21
309.3513516226879
 31
0
  0
LINE
  8
1
 62
4
 10
43.9405019325564
 20
309.3513516226879
 30
0
 11
43.9405019325564
 21
309.0663820842767
 31
0
  0
LINE
  8
1
 62
4
 10
43.9405019325564
 20
309.0663820842767
 30
0
 11
43.9405019325564
 21
308.756557955874
 31
0
  0
LINE
  8
1
 62
4
 10
43.9405019325564
 20
308.756557955874
 30
0
 11
43.9405019325564
 21
308.426390175867
 31
0
  0
LINE
  8
1
 62
4
 10
43.9405019325564
 20
308.426390175867
 30
0
 11
43.9405019325564
 21
308.0806858795831
 31
0
  0
LINE
  8
1
 62
4
 10
43.9405019325564
 20
308.0806858795831
 30
0
 11
43.9405019325564
 21
307.7244784089664
 31
0
  0
LINE
  8
1
 62
4
 10
-22.0594980674436
 20
305.4197076225111
 30
0
 11
-22.05949806744361
 21
305.7759150931278
 31
0
  0
LINE
  8
1
 62
4
 10
-22.05949806744361
 20
305.7759150931278
 30
0
 11
-22.05949806744361
 21
306.1216193894116
 31
0
  0
LINE
  8
1
 62
4
 10
-22.05949806744361
 20
306.1216193894116
 30
0
 11
-22.05949806744361
 21
306.4517871694187
 31
0
  0
LINE
  8
1
 62
4
 10
-22.05949806744361
 20
306.4517871694187
 30
0
 11
-22.05949806744361
 21
306.7616112978213
 31
0
  0
LINE
  8
1
 62
4
 10
-22.05949806744361
 20
306.7616112978213
 30
0
 11
-22.05949806744363
 21
307.0465808362326
 31
0
  0
LINE
  8
1
 62
4
 10
-22.05949806744363
 20
307.0465808362326
 30
0
 11
-22.05949806744363
 21
307.3025467209994
 31
0
  0
LINE
  8
1
 62
4
 10
-22.05949806744363
 20
307.3025467209994
 30
0
 11
-22.05949806744363
 21
307.5257821722183
 31
0
  0
LINE
  8
1
 62
4
 10
-22.05949806744363
 20
307.5257821722183
 30
0
 11
-22.05949806744363
 21
307.7130369544366
 31
0
  0
LINE
  8
1
 62
4
 10
-22.05949806744363
 20
307.7130369544366
 30
0
 11
-22.05949806744363
 21
307.8615846990216
 31
0
  0
LINE
  8
1
 62
4
 10
-22.05949806744363
 20
307.8615846990216
 30
0
 11
-22.05949806744364
 21
307.9692625992004
 31
0
  0
LINE
  8
1
 62
4
 10
-22.05949806744364
 20
307.9692625992004
 30
0
 11
-22.05949806744364
 21
308.0345028998215
 31
0
  0
LINE
  8
1
 62
4
 10
-22.05949806744364
 20
308.0345028998215
 30
0
 11
-22.05949806744364
 21
308.0563557233593
 31
0
  0
LINE
  8
1
 62
4
 10
-22.05949806744364
 20
308.0563557233593
 30
0
 11
-22.0594980674437
 21
356.0563557233593
 31
0
  0
LINE
  8
1
 62
4
 10
-25.0594980674436
 20
359.0563557233593
 30
0
 11
-27.0594980674436
 21
359.0563557233593
 31
0
  0
LINE
  8
1
 62
4
 10
-27.0594980674436
 20
359.0563557233593
 30
0
 11
-27.0594980674436
 21
389.0563557233593
 31
0
  0
LINE
  8
1
 62
4
 10
-27.0594980674436
 20
389.0563557233593
 30
0
 11
-25.0594980674437
 21
389.0563557233593
 31
0
  0
LINE
  8
1
 62
4
 10
-22.0594980674437
 20
392.0563557233593
 30
0
 11
-22.05949806744366
 21
426.954656023199
 31
0
  0
LINE
  8
1
 62
4
 10
-12.05949806744351
 20
383.0563557233564
 30
0
 11
-12.05949806744353
 21
427.663114625881
 31
0
  0
LINE
  8
1
 62
4
 10
-12.05949806744017
 20
383.0563557233592
 30
0
 11
43.94050193255644
 21
316.1007926318214
 31
0
  0
LINE
  8
1
 62
4
 10
-12.05949806744351
 20
383.0563557233631
 30
0
 11
-12.05065632412428
 21
383.0457842251014
 31
0
  0
LINE
  8
1
 62
4
 10
-12.05065632412428
 20
383.0457842251014
 30
0
 11
-12.02418321178317
 21
383.014132043966
 31
0
  0
LINE
  8
1
 62
4
 10
-12.02418321178317
 20
383.014132043966
 30
0
 11
-11.98023477606299
 21
382.9615857535975
 31
0
  0
LINE
  8
1
 62
4
 10
-11.98023477606299
 20
382.9615857535975
 30
0
 11
-11.91907007082236
 21
382.8884550878705
 31
0
  0
LINE
  8
1
 62
4
 10
-11.91907007082236
 20
382.8884550878705
 30
0
 11
-11.84104963114387
 21
382.7951711151683
 31
0
  0
LINE
  8
1
 62
4
 10
-11.84104963114387
 20
382.7951711151683
 30
0
 11
-11.74663334816175
 21
382.6822836974526
 31
0
  0
LINE
  8
1
 62
4
 10
43.94050193255644
 20
316.1007926318214
 30
0
 11
43.9405019325564
 21
310.3611265098147
 31
0
  0
LINE
  8
1
 62
4
 10
43.9405019325564
 20
310.3611265098147
 30
0
 11
-22.05949806744364
 21
308.0563557233593
 31
0
  0
LINE
  8
1
 62
4
 10
43.9405019325564
 20
303.0563557233593
 30
0
 11
43.9405019325564
 21
307.7244784089664
 31
0
  0
LINE
  8
1
 62
4
 10
43.9405019325564
 20
303.0563557233593
 30
0
 11
-22.05949806744331
 21
303.0563557233593
 31
0
  0
LINE
  8
1
 62
4
 10
-22.05949806744331
 20
303.0563557233593
 30
0
 11
-22.0594980674436
 21
305.4197076225111
 31
0
  0
LINE
  8
1
 62
4
 10
-25.0594980674436
 20
461.0563557233592
 30
0
 11
-27.05949806744361
 21
461.0563557233593
 31
0
  0
LINE
  8
1
 62
4
 10
-27.0594980674436
 20
486.0563557233593
 30
0
 11
-27.05949806744361
 21
461.0563557233593
 31
0
  0
LINE
  8
1
 62
4
 10
-27.0594980674436
 20
486.0563557233593
 30
0
 11
-22.0594980674436
 21
486.0563557233593
 31
0
  0
LINE
  8
1
 62
4
 10
-22.0594980674436
 20
486.0563557233593
 30
0
 11
-12.05949806744353
 21
486.0563557233592
 31
0
  0
ARC
  8
1
 62
4
 10
-25.0594980674436
 20
458.0563557233593
 30
0
 40
3
 50
0
 51
90
  0
ARC
  8
1
 62
4
 10
-25.0594980674436
 20
356.0563557233593
 30
0
 40
2.999999999999901
 50
0
 51
90
  0
ARC
  8
1
 62
4
 10
-25.0594980674437
 20
392.0563557233593
 30
0
 40
3
 50
270
 51
0
  0
POLYLINE
  8
1
 62
2
 66
1
  0
VERTEX
  8
1
 10
-22.05949806744366
 20
426.954656023199
 30
0
 42
0.00387249792580566
  0
VERTEX
  8
1
 10
-21.22568475576088
 20
426.7862809440164
 30
0
 42
0.01173791550928726
  0
VERTEX
  8
1
 10
-20.39332745413128
 20
426.6450847166784
 30
0
 42
0.02012528526797428
  0
VERTEX
  8
1
 10
-19.56388217260803
 20
426.5582461930292
 30
0
 42
0.02882978350709826
  0
VERTEX
  8
1
 10
-18.73880492124431
 20
426.5529442249132
 30
0
 42
0.03719070830855563
  0
VERTEX
  8
1
 10
-17.9195517100933
 20
426.656357664175
 30
0
 42
0.0407179621576737
  0
VERTEX
  8
1
 10
-16.93252358745602
 20
426.9415747589449
 30
0
 42
0.002754155132413689
  0
VERTEX
  8
1
 10
-15.95340145575407
 20
427.3193164843789
 30
0
 42
-0.01548594972617161
  0
VERTEX
  8
1
 10
-14.97932982246905
 20
427.6812264650133
 30
0
 42
-0.04325126333303834
  0
VERTEX
  8
1
 10
-14.00745319508256
 20
427.9189483253841
 30
0
 42
-0.07370558825405006
  0
VERTEX
  8
1
 10
-13.0349160810762
 20
427.924125690027
 30
0
 42
-0.01521096934266145
  0
VERTEX
  8
1
 10
-12.84000139296899
 20
427.8883010319614
 30
0
 42
-0.01155265851708742
  0
VERTEX
  8
1
 10
-12.64497409511556
 20
427.8415580040534
 30
0
 42
-0.008078037300453632
  0
VERTEX
  8
1
 10
-12.44986233995247
 20
427.7866261987635
 30
0
 42
-0.004771145835749487
  0
VERTEX
  8
1
 10
-12.25469427991628
 20
427.7262352085526
 30
0
 42
-0.001577223335666851
  0
VERTEX
  8
1
 10
-12.05949806744353
 20
427.663114625881
 30
0
  0
SEQEND
  8
1
  0
POLYLINE
  8
1
 62
2
 66
1
  0
VERTEX
  8
1
 10
-22.05949806744364
 20
440.266220294643
 30
0
 42
-0.005263248645418387
  0
VERTEX
  8
1
 10
-20.92374891269856
 20
441.1333824138405
 30
0
 42
-0.01672773735527662
  0
VERTEX
  8
1
 10
-19.78477204478455
 20
441.9273100885187
 30
0
 42
-0.0310461732813358
  0
VERTEX
  8
1
 10
-18.63933975053267
 20
442.5747688741588
 30
0
 42
-0.04959383517451214
  0
VERTEX
  8
1
 10
-17.484224316774
 20
443.0025243262417
 30
0
 42
-0.06996517964351295
  0
VERTEX
  8
1
 10
-16.3161980303396
 20
443.137342000248
 30
0
 42
-0.04855781897605305
  0
VERTEX
  8
1
 10
-15.47469173415153
 20
443.0248757051872
 30
0
 42
-0.03457271952735778
  0
VERTEX
  8
1
 10
-14.62662964036936
 20
442.763663170899
 30
0
 42
-0.02244013903701824
  0
VERTEX
  8
1
 10
-13.77365069839162
 20
442.3908909571903
 30
0
 42
-0.01250249436856054
  0
VERTEX
  8
1
 10
-12.91739385761684
 20
441.9437456238681
 30
0
 42
-0.004006515545358553
  0
VERTEX
  8
1
 10
-12.05949806744353
 20
441.459413730739
 30
0
  0
SEQEND
  8
1
  0
LINE
  8
1
 62
2
 10
12.8446107906141
 20
474.797070771385
 30
0
 11
-15.2987189852664
 21
461.692161486433
 31
0
  0
CIRCLE
  8
1
 62
2
 10
-15.2987189852664
 20
461.692161486433
 30
0
 40
0.875
  0
LINE
  8
1
 62
2
 10
12.8446107906141
 20
450.735597985899
 30
0
 11
-11.6465311517552
 21
435.0563557233593
 31
0
  0
CIRCLE
  8
1
 62
2
 10
-11.6465311517552
 20
435.0563557233593
 30
0
 40
0.875
  0
TEXT
  8
1
 62
2
 10
14.5632874181487
 20
444.075726054203
 30
0
 40
2.5
  1
eingepresst
 41
0.7
  0
TEXT
  8
1
 62
7
 10
14.7781219965906
 20
450.091094250574
 30
0
 40
5
  1
20
 41
0.7
  0
TEXT
  8
1
 62
7
 10
14.3484528397069
 20
473.937732457618
 30
0
 40
5
  1
10
 41
0.7
  0
ENDBLK
  8
0
  0
ENDSEC
  0
SECTION
  2
ENTITIES
  0
TEXT
  8
SCHRIFTFELD
 62
2
 10
-88.01414054343078
 20
222.805608658258
 30
0
 40
2.5
  1
2 016 176
 50
90
 41
0.7
 73
2
 11
-89.26414054343078
 21
222.805608658258
 31
0
  0
INSERT
  8
0
  2
_DINA4_K
 10
-1.764
 20
366.306
 30
0
  0
INSERT
  8
0
  2
STIFT_ZYL_
 10
-24.3702537239862
 20
432.0563557233593
 30
0
  0
INSERT
  8
0
  2
HALTERUNG_TEIL3
 10
-106.7641405434308
 20
217.805608658258
 30
0
  0
ENDSEC
  0
EOF
