  0
SECTION
  2
HEADER
  9
$ACADVER
  1
AC1009
  9
$INSBASE
 10
0
 20
0
  9
$EXTMIN
 10
-61.425
 20
-33.25900000000011
  9
$EXTMAX
 10
148.575
 20
263.741
  9
$LIMMIN
 10
-61.425
 20
-33.25900000000011
  9
$LIMMAX
 10
148.575
 20
263.741
  9
$VIEWCTR
 10
10
 20
10
  9
$VIEWSIZE
 40
10
  9
$SNAPMODE
 70
0
  9
$SNAPUNIT
 10
1
 20
1
  9
$SNAPBASE
 10
0
 20
0
  9
$SNAPANG
 50
0
  9
$SNAPSTYLE
 70
0
  9
$SNAPISOPAIR
 70
0
  9
$GRIDMODE
 70
0
  9
$GRIDUNIT
 10
0
 20
0
  9
$ORTHOMODE
 70
0
  9
$REGENMODE
 70
1
  9
$FILLMODE
 70
1
  9
$QTEXTMODE
 70
0
  9
$DRAGMODE
 70
2
  9
$LTSCALE
 40
1
  9
$OSMODE
 70
0
  9
$ATTMODE
 70
1
  9
$TEXTSIZE
 40
3.5
  9
$TRACEWID
 40
0.5
  9
$TEXTSTYLE
  7
STANDARD
  9
$CLAYER
  8
0
  9
$CELTYPE
  6
BYLAYER
  9
$CECOLOR
 62
256
  9
$DIMSCALE
 40
1
  9
$DIMASZ
 40
0.18
  9
$DIMEXO
 40
0.0625
  9
$DIMDLI
 40
0.38
  9
$DIMRND
 40
0
  9
$DIMDLE
 40
0
  9
$DIMEXE
 40
0.18
  9
$DIMTP
 40
0
  9
$DIMTM
 40
0
  9
$DIMTXT
 40
0.18
  9
$DIMCEN
 40
0.09
  9
$DIMTSZ
 40
0
  9
$DIMTOL
 70
0
  9
$DIMLIM
 70
0
  9
$DIMTIH
 70
1
  9
$DIMTOH
 70
1
  9
$DIMSE1
 70
0
  9
$DIMSE2
 70
0
  9
$DIMTAD
 70
0
  9
$DIMZIN
 70
0
  9
$DIMBLK
  1

  9
$DIMASO
 70
1
  9
$DIMSHO
 70
1
  9
$DIMPOST
  1

  9
$DIMAPOST
  1

  9
$DIMALT
 70
0
  9
$DIMALTD
 70
2
  9
$DIMALTF
 40
25.4
  9
$DIMLFAC
 40
1
  9
$DIMTOFL
 70
0
  9
$DIMTVP
 40
0
  9
$DIMTIX
 70
0
  9
$DIMSOXD
 70
0
  9
$DIMSAH
 70
0
  9
$DIMBLK1
  1

  9
$DIMBLK2
  1

  9
$DIMSTYLE
  2
*UNNAMED
  9
$DIMCLRD
 70
0
  9
$DIMCLRE
 70
0
  9
$DIMCLRT
 70
0
  9
$DIMTFAC
 40
1
  9
$DIMGAP
 40
0.09
  9
$LUNITS
 70
2
  9
$LUPREC
 70
4
  9
$AXISMODE
 70
0
  9
$AXISUNIT
 10
0
 20
0
  9
$SKETCHINC
 40
0.1
  9
$FILLETRAD
 40
2
  9
$AUNITS
 70
0
  9
$AUPREC
 70
0
  9
$MENU
  1
ACAD
  9
$ELEVATION
 40
0
  9
$THICKNESS
 40
0
  9
$VIEWDIR
 10
0
 20
0
 30
1
  9
$LIMCHECK
 70
0
  9
$BLIPMODE
 70
1
  9
$CHAMFERA
 40
0
  9
$CHAMFERB
 40
0
  9
$FASTZOOM
 70
1
  9
$SKPOLY
 70
0
  9
$ANGBASE
 50
0
  9
$ANGDIR
 70
0
  9
$PDMODE
 70
0
  9
$PDSIZE
 40
0
  9
$PLINEWID
 40
0
  9
$COORDS
 70
2
  0
ENDSEC
  0
SECTION
  2
TABLES
  0
TABLE
  2
DIMSTYLE
 70
0
  0
ENDTAB
  0
TABLE
  2
LTYPE
 70
9
  0
LTYPE
  2
CONTINUOUS
 70
64
  3
Solid line
 72
65
 73
0
 40
0
  0
LTYPE
  2
BORDER
 70
64
  3
__ __ . __ __ .
 72
65
 73
6
 40
13.67763157894737
 49
3.907894736842107
 49
-1.953947368421053
 49
3.907894736842107
 49
-1.953947368421053
 49
0
 49
-1.953947368421053
  0
LTYPE
  2
CENTER
 70
64
  3
____ _ ____ _
 72
65
 73
4
 40
15.63157894736843
 49
9.769736842105267
 49
-1.953947368421053
 49
1.953947368421053
 49
-1.953947368421053
  0
LTYPE
  2
DASHDOT
 70
64
  3
__ . __ . __ .
 72
65
 73
4
 40
7.815789473684213
 49
3.907894736842107
 49
-1.953947368421053
 49
0
 49
-1.953947368421053
  0
LTYPE
  2
DASHED
 70
64
  3
__ __ __ __ __
 72
65
 73
2
 40
5.86184210526316
 49
3.907894736842107
 49
-1.953947368421053
  0
LTYPE
  2
DIVIDE
 70
64
  3
__ . . __ . . 
 72
65
 73
6
 40
9.769736842105267
 49
3.907894736842107
 49
-1.953947368421053
 49
0
 49
-1.953947368421053
 49
0
 49
-1.953947368421053
  0
LTYPE
  2
DOT
 70
64
  3
..............
 72
65
 73
4
 40
3.907894736842107
 49
0
 49
-1.953947368421053
 49
0
 49
-1.953947368421053
  0
LTYPE
  2
HIDDEN
 70
64
  3
_ _ _ _ _ _ _
 72
65
 73
2
 40
2.93092105263158
 49
1.953947368421053
 49
-0.9769736842105267
  0
LTYPE
  2
PHANTOM
 70
64
  3
_____ _ _ _____ _ _ 
 72
65
 73
6
 40
19.53947368421053
 49
9.769736842105267
 49
-1.953947368421053
 49
1.953947368421053
 49
-1.953947368421053
 49
1.953947368421053
 49
-1.953947368421053
  0
ENDTAB
  0
TABLE
  2
LAYER
 70
4
  0
LAYER
  2
SCHRIFTFELD
 70
0
 62
7
  6
CONTINUOUS
  0
LAYER
  2
1
 70
0
 62
7
  6
CONTINUOUS
  0
LAYER
  2
0
 70
0
 62
7
  6
CONTINUOUS
  0
ENDTAB
  0
TABLE
  2
STYLE
 70
4
  0
STYLE
  2
STANDARD
 70
0
 40
0
 41
1
 50
0
 71
0
 42
3.5
  3
txt
  4

  0
STYLE
  2
SIMPLEX
 70
0
 40
0
 41
1
 50
0
 71
0
 42
3.5
  3
simplex
  4

  0
STYLE
  2
COMPLEX
 70
0
 40
0
 41
1
 50
0
 71
0
 42
3.5
  3
complex
  4

  0
STYLE
  2
ITALIC
 70
0
 40
0
 41
1
 50
0
 71
0
 42
3.5
  3
italic
  4

  0
ENDTAB
  0
TABLE
  2
VIEW
 70
0
  0
ENDTAB
  0
ENDSEC
  0
SECTION
  2
BLOCKS
  0
BLOCK
  8
1
  2
*X0
 70
1
 10
0
 20
0
 30
0
  0
LINE
  8
1
 62
211
 10
43.0072150520076
 20
-11.01574303064472
 30
0
 11
43.11584409396695
 21
-10.9071139886853
 31
0
  0
LINE
  8
1
 62
211
 10
43.00721505200759
 20
-11.15716438688204
 30
0
 11
43.25726545020426
 21
-10.9071139886853
 31
0
  0
LINE
  8
1
 62
211
 10
43.00721505200758
 20
-11.29858574311935
 30
0
 11
43.39868680644157
 21
-10.9071139886853
 31
0
  0
LINE
  8
1
 62
211
 10
43.00721505200757
 20
-11.44000709935667
 30
0
 11
43.54010816267888
 21
-10.9071139886853
 31
0
  0
LINE
  8
1
 62
211
 10
43.00721505200757
 20
-11.58142845559398
 30
0
 11
43.68152951891619
 21
-10.9071139886853
 31
0
  0
LINE
  8
1
 62
211
 10
43.00721505200756
 20
-11.7228498118313
 30
0
 11
43.8229508751535
 21
-10.9071139886853
 31
0
  0
LINE
  8
1
 62
211
 10
43.00721505200755
 20
-11.86427116806861
 30
0
 11
43.9643722313908
 21
-10.9071139886853
 31
0
  0
LINE
  8
1
 62
211
 10
43.00721505200755
 20
-12.00569252430593
 30
0
 11
44.10579358762811
 21
-10.9071139886853
 31
0
  0
LINE
  8
1
 62
211
 10
43.00721505200754
 20
-12.14711388054324
 30
0
 11
44.24721494386542
 21
-10.9071139886853
 31
0
  0
LINE
  8
1
 62
211
 10
43.00721505200753
 20
-12.28853523678056
 30
0
 11
44.38863630010273
 21
-10.9071139886853
 31
0
  0
LINE
  8
1
 62
211
 10
43.00721505200752
 20
-12.42995659301787
 30
0
 11
44.53005765634004
 21
-10.9071139886853
 31
0
  0
LINE
  8
1
 62
211
 10
43.00721505200752
 20
-12.57137794925518
 30
0
 11
44.67147901257735
 21
-10.9071139886853
 31
0
  0
LINE
  8
1
 62
211
 10
43.00721505200751
 20
-12.7127993054925
 30
0
 11
44.75751885417822
 21
-10.96249550332167
 31
0
  0
LINE
  8
1
 62
211
 10
43.0072150520075
 20
-12.85422066172981
 30
0
 11
44.75751885417824
 21
-11.10391685955896
 31
0
  0
LINE
  8
1
 62
211
 10
43.0072150520075
 20
-12.99564201796713
 30
0
 11
44.75751885417825
 21
-11.24533821579626
 31
0
  0
LINE
  8
1
 62
211
 10
43.00721505200749
 20
-13.13706337420444
 30
0
 11
44.75751885417827
 21
-11.38675957203356
 31
0
  0
LINE
  8
1
 62
211
 10
43.00721505200748
 20
-13.27848473044176
 30
0
 11
44.75751885417828
 21
-11.52818092827086
 31
0
  0
LINE
  8
1
 62
211
 10
43.00721505200747
 20
-13.41990608667907
 30
0
 11
44.75751885417829
 21
-11.66960228450816
 31
0
  0
LINE
  8
1
 62
211
 10
43.00721505200747
 20
-13.56132744291639
 30
0
 11
44.75751885417831
 21
-11.81102364074546
 31
0
  0
LINE
  8
1
 62
211
 10
43.00721505200746
 20
-13.7027487991537
 30
0
 11
44.75751885417832
 21
-11.95244499698276
 31
0
  0
LINE
  8
1
 62
211
 10
43.00721505200745
 20
-13.84417015539102
 30
0
 11
44.75751885417834
 21
-12.09386635322005
 31
0
  0
LINE
  8
1
 62
211
 10
43.00721505200745
 20
-13.98559151162833
 30
0
 11
44.75751885417835
 21
-12.23528770945735
 31
0
  0
LINE
  8
1
 62
211
 10
43.00721505200744
 20
-14.12701286786564
 30
0
 11
44.75751885417836
 21
-12.37670906569465
 31
0
  0
LINE
  8
1
 62
211
 10
43.00721505200743
 20
-14.26843422410296
 30
0
 11
44.75751885417838
 21
-12.51813042193195
 31
0
  0
LINE
  8
1
 62
211
 10
43.00721505200742
 20
-14.40985558034027
 30
0
 11
44.75751885417839
 21
-12.65955177816925
 31
0
  0
LINE
  8
1
 62
211
 10
43.00721505200742
 20
-14.55127693657759
 30
0
 11
44.75751885417841
 21
-12.80097313440655
 31
0
  0
LINE
  8
1
 62
211
 10
43.00721505200741
 20
-14.6926982928149
 30
0
 11
44.75751885417842
 21
-12.94239449064385
 31
0
  0
LINE
  8
1
 62
211
 10
43.0072150520074
 20
-14.83411964905222
 30
0
 11
44.75751885417844
 21
-13.08381584688114
 31
0
  0
LINE
  8
1
 62
211
 10
43.0072150520074
 20
-14.97554100528953
 30
0
 11
44.75751885417845
 21
-13.22523720311844
 31
0
  0
LINE
  8
1
 62
211
 10
43.00721505200739
 20
-15.11696236152685
 30
0
 11
44.75751885417846
 21
-13.36665855935574
 31
0
  0
LINE
  8
1
 62
211
 10
47.18377833414509
 20
-11.08182043562644
 30
0
 11
47.35848478108623
 21
-10.9071139886853
 31
0
  0
LINE
  8
1
 62
211
 10
43.00721505200738
 20
-15.25838371776416
 30
0
 11
44.75751885417848
 21
-13.50807991559304
 31
0
  0
LINE
  8
1
 62
211
 10
46.93317969089258
 20
-11.47384043511626
 30
0
 11
47.49990613732354
 21
-10.9071139886853
 31
0
  0
LINE
  8
1
 62
211
 10
43.00721505200737
 20
-15.39980507400148
 30
0
 11
44.75751885417849
 21
-13.64950127183034
 31
0
  0
LINE
  8
1
 62
211
 10
46.68258104764007
 20
-11.86586043460607
 30
0
 11
47.64132749356085
 21
-10.9071139886853
 31
0
  0
LINE
  8
1
 62
211
 10
43.00721505200737
 20
-15.54122643023879
 30
0
 11
44.75751885417851
 21
-13.79092262806764
 31
0
  0
LINE
  8
1
 62
211
 10
46.43198240438756
 20
-12.25788043409589
 30
0
 11
47.78274884979816
 21
-10.9071139886853
 31
0
  0
LINE
  8
1
 62
211
 10
43.00721505200736
 20
-15.6826477864761
 30
0
 11
44.89474757621554
 21
-13.79511526226791
 31
0
  0
LINE
  8
1
 62
211
 10
46.18138376113505
 20
-12.64990043358571
 30
0
 11
47.92417020603547
 21
-10.9071139886853
 31
0
  0
LINE
  8
1
 62
211
 10
43.00721505200735
 20
-15.82406914271342
 30
0
 11
45.03616893245285
 21
-13.79511526226791
 31
0
  0
LINE
  8
1
 62
211
 10
45.93078511788254
 20
-13.04192043307553
 30
0
 11
48.06559156227278
 21
-10.9071139886853
 31
0
  0
LINE
  8
1
 62
211
 10
43.00721505200735
 20
-15.96549049895073
 30
0
 11
45.17759028869016
 21
-13.79511526226791
 31
0
  0
LINE
  8
1
 62
211
 10
45.68018647463003
 20
-13.43394043256535
 30
0
 11
48.20701291851009
 21
-10.9071139886853
 31
0
  0
LINE
  8
1
 62
211
 10
43.00721505200734
 20
-16.10691185518805
 30
0
 11
45.31901164492747
 21
-13.79511526226791
 31
0
  0
LINE
  8
1
 62
211
 10
43.00721505200733
 20
-16.24833321142536
 30
0
 11
48.3484342747474
 21
-10.9071139886853
 31
0
  0
LINE
  8
1
 62
211
 10
43.00721505200733
 20
-16.38975456766268
 30
0
 11
48.48985563098471
 21
-10.9071139886853
 31
0
  0
LINE
  8
1
 62
211
 10
43.00721505200732
 20
-16.5311759239
 30
0
 11
48.63127698722202
 21
-10.9071139886853
 31
0
  0
LINE
  8
1
 62
211
 10
43.00721505200731
 20
-16.67259728013731
 30
0
 11
48.77269834345933
 21
-10.9071139886853
 31
0
  0
LINE
  8
1
 62
211
 10
43.0072150520073
 20
-16.81401863637463
 30
0
 11
48.91411969969663
 21
-10.9071139886853
 31
0
  0
LINE
  8
1
 62
211
 10
43.0072150520073
 20
-16.95543999261195
 30
0
 11
49.05554105593394
 21
-10.9071139886853
 31
0
  0
LINE
  8
1
 62
211
 10
44.75869205666577
 20
-15.3453843441908
 30
0
 11
49.19696241217125
 21
-10.9071139886853
 31
0
  0
LINE
  8
1
 62
211
 10
43.00721505200729
 20
-17.09686134884926
 30
0
 11
44.75751885417829
 21
-15.34655754667827
 31
0
  0
LINE
  8
1
 62
211
 10
44.90011341290305
 20
-15.34538434419082
 30
0
 11
49.33838376840856
 21
-10.9071139886853
 31
0
  0
LINE
  8
1
 62
211
 10
43.00721505200728
 20
-17.23828270508658
 30
0
 11
44.75751885417829
 21
-15.48797890291558
 31
0
  0
LINE
  8
1
 62
211
 10
45.04153476914034
 20
-15.34538434419084
 30
0
 11
49.3879844248584
 21
-10.99893468847278
 31
0
  0
LINE
  8
1
 62
211
 10
43.00721505200728
 20
-17.3797040613239
 30
0
 11
44.75751885417829
 21
-15.62940025915289
 31
0
  0
LINE
  8
1
 62
211
 10
45.18295612537763
 20
-15.34538434419085
 30
0
 11
49.09372876082772
 21
-11.43461170874078
 31
0
  0
LINE
  8
1
 62
211
 10
43.00721505200727
 20
-17.52112541756121
 30
0
 11
44.75751885417829
 21
-15.7708216153902
 31
0
  0
LINE
  8
1
 62
211
 10
45.32437748161492
 20
-15.34538434419087
 30
0
 11
48.79947309679703
 21
-11.87028872900877
 31
0
  0
LINE
  8
1
 62
211
 10
43.00721505200726
 20
-17.66254677379853
 30
0
 11
44.75751885417829
 21
-15.91224297162751
 31
0
  0
LINE
  8
1
 62
211
 10
45.45576010613846
 20
-15.35542307590455
 30
0
 11
48.50521743276634
 21
-12.30596574927676
 31
0
  0
LINE
  8
1
 62
211
 10
43.00721505200725
 20
-17.80396813003584
 30
0
 11
44.75751885417829
 21
-16.05366432786482
 31
0
  0
LINE
  8
1
 62
211
 10
45.51110432947162
 20
-15.4415002088087
 30
0
 11
48.21096176873566
 21
-12.74164276954476
 31
0
  0
LINE
  8
1
 62
211
 10
43.00721505200725
 20
-17.94538948627316
 30
0
 11
44.75751885417829
 21
-16.19508568410212
 31
0
  0
LINE
  8
1
 62
211
 10
45.56644855280478
 20
-15.52757734171285
 30
0
 11
47.91670610470497
 21
-13.17731978981275
 31
0
  0
LINE
  8
1
 62
211
 10
43.00721505200724
 20
-18.08681084251048
 30
0
 11
44.75751885417829
 21
-16.33650704033943
 31
0
  0
LINE
  8
1
 62
211
 10
45.62179277613794
 20
-15.61365447461701
 30
0
 11
47.62245044067429
 21
-13.61299681008074
 31
0
  0
LINE
  8
1
 62
211
 10
43.01873119300242
 20
-18.21671605775261
 30
0
 11
44.75751885417829
 21
-16.47792839657674
 31
0
  0
LINE
  8
1
 62
211
 10
45.6771369994711
 20
-15.69973160752116
 30
0
 11
47.3281947766436
 21
-14.04867383034874
 31
0
  0
LINE
  8
1
 62
211
 10
43.16015254923973
 20
-18.21671605775261
 30
0
 11
44.75751885417829
 21
-16.61934975281405
 31
0
  0
LINE
  8
1
 62
211
 10
45.73248122280425
 20
-15.78580874042531
 30
0
 11
47.03393911261291
 21
-14.48435085061673
 31
0
  0
LINE
  8
1
 62
211
 10
43.30157390547703
 20
-18.21671605775261
 30
0
 11
44.75751885417829
 21
-16.76077110905136
 31
0
  0
LINE
  8
1
 62
211
 10
45.78782544613741
 20
-15.87188587332946
 30
0
 11
47.02511653519151
 21
-14.6345947842756
 31
0
  0
LINE
  8
1
 62
211
 10
43.44299526171434
 20
-18.21671605775261
 30
0
 11
44.75751885417829
 21
-16.90219246528867
 31
0
  0
LINE
  8
1
 62
211
 10
45.84316966947057
 20
-15.95796300623362
 30
0
 11
47.08220493835606
 21
-14.71892773734836
 31
0
  0
LINE
  8
1
 62
211
 10
43.58441661795165
 20
-18.21671605775261
 30
0
 11
44.75751885417829
 21
-17.04361382152598
 31
0
  0
LINE
  8
1
 62
211
 10
45.89851389280373
 20
-16.04404013913777
 30
0
 11
47.13929334152061
 21
-14.80326069042111
 31
0
  0
LINE
  8
1
 62
211
 10
43.72583797418896
 20
-18.21671605775261
 30
0
 11
44.75751885417829
 21
-17.18503517776329
 31
0
  0
LINE
  8
1
 62
211
 10
45.95385811613689
 20
-16.13011727204193
 30
0
 11
47.19638174468516
 21
-14.88759364349387
 31
0
  0
LINE
  8
1
 62
211
 10
43.86725933042627
 20
-18.21671605775261
 30
0
 11
44.75751885417829
 21
-17.3264565340006
 31
0
  0
LINE
  8
1
 62
211
 10
46.00920233947004
 20
-16.21619440494608
 30
0
 11
47.2534701478497
 21
-14.97192659656663
 31
0
  0
LINE
  8
1
 62
211
 10
44.00868068666358
 20
-18.21671605775261
 30
0
 11
44.75751885417829
 21
-17.46787789023791
 31
0
  0
LINE
  8
1
 62
211
 10
46.0645465628032
 20
-16.30227153785023
 30
0
 11
47.31055855101425
 21
-15.05625954963938
 31
0
  0
LINE
  8
1
 62
211
 10
44.15010204290089
 20
-18.21671605775261
 30
0
 11
44.75751885417829
 21
-17.60929924647522
 31
0
  0
LINE
  8
1
 62
211
 10
46.11989078613636
 20
-16.38834867075439
 30
0
 11
47.3676469541788
 21
-15.14059250271214
 31
0
  0
LINE
  8
1
 62
211
 10
44.2915233991382
 20
-18.21671605775261
 30
0
 11
44.75751885417829
 21
-17.75072060271253
 31
0
  0
LINE
  8
1
 62
211
 10
46.17523500946952
 20
-16.47442580365854
 30
0
 11
47.42473535734335
 21
-15.22492545578489
 31
0
  0
LINE
  8
1
 62
211
 10
44.43294475537551
 20
-18.21671605775261
 30
0
 11
44.75751885417829
 21
-17.89214195894984
 31
0
  0
LINE
  8
1
 62
211
 10
46.23057923280268
 20
-16.5605029365627
 30
0
 11
47.4818237605079
 21
-15.30925840885765
 31
0
  0
LINE
  8
1
 62
211
 10
44.57436611161282
 20
-18.21671605775261
 30
0
 11
44.75751885417829
 21
-18.03356331518714
 31
0
  0
LINE
  8
1
 62
211
 10
46.28592345613583
 20
-16.64658006946685
 30
0
 11
47.53891216367245
 21
-15.39359136193041
 31
0
  0
LINE
  8
1
 62
211
 10
44.71578746785013
 20
-18.21671605775261
 30
0
 11
44.75751885417829
 21
-18.17498467142445
 31
0
  0
LINE
  8
1
 62
211
 10
46.34126767946899
 20
-16.73265720237101
 30
0
 11
47.596000566837
 21
-15.47792431500316
 31
0
  0
LINE
  8
1
 62
211
 10
46.39661190280215
 20
-16.81873433527516
 30
0
 11
47.65308897000155
 21
-15.56225726807592
 31
0
  0
LINE
  8
1
 62
211
 10
46.45195612613531
 20
-16.90481146817932
 30
0
 11
47.7101773731661
 21
-15.64659022114868
 31
0
  0
LINE
  8
1
 62
211
 10
46.50730034946847
 20
-16.99088860108347
 30
0
 11
47.76726577633065
 21
-15.73092317422143
 31
0
  0
LINE
  8
1
 62
211
 10
46.56264457280162
 20
-17.07696573398763
 30
0
 11
47.8243541794952
 21
-15.81525612729419
 31
0
  0
LINE
  8
1
 62
211
 10
46.61798879613478
 20
-17.16304286689178
 30
0
 11
47.88144258265974
 21
-15.89958908036695
 31
0
  0
LINE
  8
1
 62
211
 10
46.67333301946794
 20
-17.24911999979594
 30
0
 11
47.93853098582429
 21
-15.9839220334397
 31
0
  0
LINE
  8
1
 62
211
 10
46.7286772428011
 20
-17.33519713270009
 30
0
 11
47.99561938898884
 21
-16.06825498651246
 31
0
  0
LINE
  8
1
 62
211
 10
46.78402146613426
 20
-17.42127426560425
 30
0
 11
48.05270779215339
 21
-16.15258793958522
 31
0
  0
LINE
  8
1
 62
211
 10
46.83936568946741
 20
-17.5073513985084
 30
0
 11
48.10979619531794
 21
-16.23692089265797
 31
0
  0
LINE
  8
1
 62
211
 10
46.89470991280057
 20
-17.59342853141256
 30
0
 11
48.16688459848249
 21
-16.32125384573073
 31
0
  0
LINE
  8
1
 62
211
 10
46.95005413613373
 20
-17.67950566431671
 30
0
 11
48.22397300164704
 21
-16.40558679880349
 31
0
  0
LINE
  8
1
 62
211
 10
47.00539835946689
 20
-17.76558279722087
 30
0
 11
48.28106140481159
 21
-16.48991975187624
 31
0
  0
LINE
  8
1
 62
211
 10
47.06074258280005
 20
-17.85165993012502
 30
0
 11
48.33814980797614
 21
-16.574252704949
 31
0
  0
LINE
  8
1
 62
211
 10
47.1160868061332
 20
-17.93773706302918
 30
0
 11
48.39523821114069
 21
-16.65858565802176
 31
0
  0
LINE
  8
1
 62
211
 10
47.17143102946636
 20
-18.02381419593333
 30
0
 11
48.45232661430524
 21
-16.74291861109451
 31
0
  0
LINE
  8
1
 62
211
 10
47.22677525279952
 20
-18.10989132883748
 30
0
 11
48.50941501746978
 21
-16.82725156416727
 31
0
  0
LINE
  8
1
 62
211
 10
47.28211947613268
 20
-18.19596846174164
 30
0
 11
48.56650342063433
 21
-16.91158451724003
 31
0
  0
LINE
  8
1
 62
211
 10
47.4027932363589
 20
-18.21671605775271
 30
0
 11
48.62359182379888
 21
-16.99591747031278
 31
0
  0
LINE
  8
1
 62
211
 10
47.54421459259622
 20
-18.21671605775271
 30
0
 11
48.68068022696343
 21
-17.08025042338554
 31
0
  0
LINE
  8
1
 62
211
 10
47.68563594883354
 20
-18.2167160577527
 30
0
 11
48.73776863012798
 21
-17.1645833764583
 31
0
  0
LINE
  8
1
 62
211
 10
47.82705730507085
 20
-18.21671605775269
 30
0
 11
48.79485703329253
 21
-17.24891632953105
 31
0
  0
LINE
  8
1
 62
211
 10
47.96847866130817
 20
-18.21671605775268
 30
0
 11
48.85194543645708
 21
-17.33324928260381
 31
0
  0
LINE
  8
1
 62
211
 10
48.10990001754548
 20
-18.21671605775268
 30
0
 11
48.90903383962163
 21
-17.41758223567657
 31
0
  0
LINE
  8
1
 62
211
 10
48.2513213737828
 20
-18.21671605775267
 30
0
 11
48.96612224278618
 21
-17.50191518874932
 31
0
  0
LINE
  8
1
 62
211
 10
48.39274273002012
 20
-18.21671605775266
 30
0
 11
49.02321064595073
 21
-17.58624814182208
 31
0
  0
LINE
  8
1
 62
211
 10
48.53416408625743
 20
-18.21671605775266
 30
0
 11
49.08029904911528
 21
-17.67058109489484
 31
0
  0
LINE
  8
1
 62
211
 10
48.67558544249475
 20
-18.21671605775265
 30
0
 11
49.13738745227982
 21
-17.75491404796759
 31
0
  0
LINE
  8
1
 62
211
 10
48.81700679873207
 20
-18.21671605775264
 30
0
 11
49.19447585544437
 21
-17.83924700104035
 31
0
  0
LINE
  8
1
 62
211
 10
48.95842815496938
 20
-18.21671605775263
 30
0
 11
49.25156425860892
 21
-17.92357995411311
 31
0
  0
LINE
  8
1
 62
211
 10
49.0998495112067
 20
-18.21671605775263
 30
0
 11
49.30865266177347
 21
-18.00791290718586
 31
0
  0
LINE
  8
1
 62
211
 10
49.24127086744402
 20
-18.21671605775262
 30
0
 11
49.36574106493802
 21
-18.09224586025862
 31
0
  0
LINE
  8
1
 62
211
 10
49.38269222368133
 20
-18.21671605775261
 30
0
 11
49.42282946810257
 21
-18.17657881333137
 31
0
  0
ENDBLK
  8
0
  0
BLOCK
  8
1
  2
*X1
 70
1
 10
0
 20
0
 30
0
  0
LINE
  8
1
 62
211
 10
35.82132947120644
 20
-12.54477436195342
 30
0
 11
36.98343386528351
 21
-11.38266996787635
 31
0
  0
LINE
  8
1
 62
211
 10
35.63671304011994
 20
-12.87081214927722
 30
0
 11
37.30947165260731
 21
-11.19805353678985
 31
0
  0
LINE
  8
1
 62
211
 10
35.51840902076371
 20
-13.13053752487077
 30
0
 11
37.56919702820086
 21
-11.07974951743361
 31
0
  0
LINE
  8
1
 62
211
 10
35.43413874441699
 20
-13.35622915745479
 30
0
 11
37.79488866078488
 21
-10.9954792410869
 31
0
  0
LINE
  8
1
 62
211
 10
35.37177413685682
 20
-13.56001512125227
 30
0
 11
37.99867462458236
 21
-10.93311463352673
 31
0
  0
LINE
  8
1
 62
211
 10
35.32519434239211
 20
-13.7480162719543
 30
0
 11
38.18667577528439
 21
-10.88653483906202
 31
0
  0
LINE
  8
1
 62
211
 10
35.29074511312372
 20
-13.92388685745999
 30
0
 11
38.36254636079009
 21
-10.85208560979363
 31
0
  0
LINE
  8
1
 62
211
 10
35.26608592475917
 20
-14.08996740206185
 30
0
 11
38.52862690539195
 21
-10.82742642142908
 31
0
  0
LINE
  8
1
 62
211
 10
35.24970098146003
 20
-14.24777370159831
 30
0
 11
38.6864332049284
 21
-10.81104147812994
 31
0
  0
LINE
  8
1
 62
211
 10
35.24028931557463
 20
-14.39860672372101
 30
0
 11
38.8372662270511
 21
-10.80162981224454
 31
0
  0
LINE
  8
1
 62
211
 10
35.23689637041405
 20
-14.5434210251189
 30
0
 11
38.98208052844899
 21
-10.79823686708396
 31
0
  0
LINE
  8
1
 62
211
 10
35.23889310261371
 20
-14.68284564915655
 30
0
 11
39.12150515248665
 21
-10.80023359928362
 31
0
  0
LINE
  8
1
 62
211
 10
35.24575334919346
 20
-14.8174067588141
 30
0
 11
39.25606626214419
 21
-10.80709384586338
 31
0
  0
LINE
  8
1
 62
211
 10
35.25703359217426
 20
-14.94754787207062
 30
0
 11
39.38620737540072
 21
-10.81837408884417
 31
0
  0
LINE
  8
1
 62
211
 10
35.27235734829276
 20
-15.07364547218943
 30
0
 11
39.51230497551953
 21
-10.83369784496267
 31
0
  0
LINE
  8
1
 62
211
 10
35.29140299628357
 20
-15.19602118043593
 30
0
 11
39.63468068376603
 21
-10.85274349295347
 31
0
  0
LINE
  8
1
 62
211
 10
35.31389419051719
 20
-15.31495134243962
 30
0
 11
39.75361084576971
 21
-10.8752346871871
 31
0
  0
LINE
  8
1
 62
211
 10
37.94632665971932
 20
-12.8239402294748
 30
0
 11
39.86933414989893
 21
-10.9009327392952
 31
0
  0
LINE
  8
1
 62
211
 10
35.33959224262529
 20
-15.43067464656883
 30
0
 11
37.26275981465898
 21
-13.50750707453515
 31
0
  0
LINE
  8
1
 62
211
 10
38.23085563575567
 20
-12.68083260967575
 30
0
 11
39.98205773244226
 21
-10.92963051298917
 31
0
  0
LINE
  8
1
 62
211
 10
35.36829001631926
 20
-15.54339822911217
 30
0
 11
37.11965219485994
 21
-13.79203605057149
 31
0
  0
LINE
  8
1
 62
211
 10
38.44635566022971
 20
-12.60675394143902
 30
0
 11
40.09190368571563
 21
-10.96120591595311
 31
0
  0
LINE
  8
1
 62
211
 10
35.3998654192832
 20
-15.65324418238554
 30
0
 11
37.0455735266232
 21
-14.00753607504553
 31
0
  0
LINE
  8
1
 62
211
 10
38.63054701781218
 20
-12.56398394009387
 30
0
 11
40.19889008766154
 21
-10.9956408702445
 31
0
  0
LINE
  8
1
 62
211
 10
35.43430037357459
 20
-15.76023058433145
 30
0
 11
37.00280352527805
 21
-14.19172743262799
 31
0
  0
LINE
  8
1
 62
211
 10
38.79528460420195
 20
-12.5406677099414
 30
0
 11
40.30334040220858
 21
-11.03261191193478
 31
0
  0
LINE
  8
1
 62
211
 10
35.47127141526487
 20
-15.86468089887849
 30
0
 11
36.97948729512558
 21
-14.35646501901777
 31
0
  0
LINE
  8
1
 62
211
 10
38.94609013383042
 20
-12.53128353655024
 30
0
 11
40.40537835700664
 21
-11.07199531337402
 31
0
  0
LINE
  8
1
 62
211
 10
35.51065481670412
 20
-15.96671885367654
 30
0
 11
36.97010312173443
 21
-14.50727054864623
 31
0
  0
LINE
  8
1
 62
211
 10
39.08616338297463
 20
-12.53263164364335
 30
0
 11
40.50480942662728
 21
-11.1139855999907
 31
0
  0
LINE
  8
1
 62
211
 10
35.5526451033208
 20
-16.06614992329718
 30
0
 11
36.97145122882753
 21
-14.64734379779045
 31
0
  0
LINE
  8
1
 62
211
 10
39.21751268086086
 20
-12.54270370199441
 30
0
 11
40.60202203872257
 21
-11.15819434413271
 31
0
  0
LINE
  8
1
 62
211
 10
35.5968538474628
 20
-16.16336253539248
 30
0
 11
36.9815232871786
 21
-14.77869309567668
 31
0
  0
LINE
  8
1
 62
211
 10
39.34146804437831
 20
-12.56016969471428
 30
0
 11
40.69700994913143
 21
-11.20462778996117
 31
0
  0
LINE
  8
1
 62
211
 10
35.64328729329126
 20
-16.25835044580134
 30
0
 11
36.99898927989847
 21
-14.90264845919413
 31
0
  0
LINE
  8
1
 62
211
 10
39.45900485729587
 20
-12.58405423803404
 30
0
 11
40.78970011863876
 21
-11.25335897669114
 31
0
  0
LINE
  8
1
 62
211
 10
35.69201848002123
 20
-16.35104061530867
 30
0
 11
37.02287382321822
 21
-15.02018527211168
 31
0
  0
LINE
  8
1
 62
211
 10
39.57081468509959
 20
-12.61366576646762
 30
0
 11
40.88039782965832
 21
-11.30408262190889
 31
0
  0
LINE
  8
1
 62
211
 10
35.74274212523898
 20
-16.44173832632823
 30
0
 11
37.0524853516518
 21
-15.13199509991541
 31
0
  0
LINE
  8
1
 62
211
 10
39.67749671843355
 20
-12.64840508937098
 30
0
 11
40.96886133650921
 21
-11.35704047129532
 31
0
  0
LINE
  8
1
 62
211
 10
35.79569997462541
 20
-16.53020183317911
 30
0
 11
37.08722467455517
 21
-15.23867713324936
 31
0
  0
LINE
  8
1
 62
211
 10
39.77944605200418
 20
-12.68787711203766
 30
0
 11
41.05538183898332
 21
-11.41194132505851
 31
0
  0
LINE
  8
1
 62
211
 10
35.8506008283886
 20
-16.61672233565323
 30
0
 11
37.12669669722184
 21
-15.34062646681999
 31
0
  0
LINE
  8
1
 62
211
 10
39.87698183288381
 20
-12.73176268739533
 30
0
 11
41.13985665356939
 21
-11.46888786670976
 31
0
  0
LINE
  8
1
 62
211
 10
35.90754737003985
 20
-16.7011971502393
 30
0
 11
37.17058227257952
 21
-15.43816224769963
 31
0
  0
LINE
  8
1
 62
211
 10
39.97036121669144
 20
-12.77980465982501
 30
0
 11
41.22235868935088
 21
-11.52780718716558
 31
0
  0
LINE
  8
1
 62
211
 10
35.96646669049567
 20
-16.78369918602078
 30
0
 11
37.2186242450092
 21
-15.53154163150726
 31
0
  0
LINE
  8
1
 62
211
 10
40.05978983242019
 20
-12.83179740033357
 30
0
 11
41.30295215427351
 21
-11.58863507848026
 31
0
  0
LINE
  8
1
 62
211
 10
36.02729458181035
 20
-16.86429265094341
 30
0
 11
37.27061698551775
 21
-15.62097024723601
 31
0
  0
LINE
  8
1
 62
211
 10
40.14542963440665
 20
-12.88757895458442
 30
0
 11
41.38155092994778
 21
-11.65145765904329
 31
0
  0
LINE
  8
1
 62
211
 10
36.09011716237338
 20
-16.94289142661769
 30
0
 11
37.3263985397686
 21
-15.70661004922247
 31
0
  0
LINE
  8
1
 62
211
 10
40.22740475432292
 20
-12.94702519090546
 30
0
 11
41.45833842320828
 21
-11.71609152202011
 31
0
  0
LINE
  8
1
 62
211
 10
36.15475102535019
 20
-17.01967891987818
 30
0
 11
37.38584477608965
 21
-15.78858516913873
 31
0
  0
LINE
  8
1
 62
211
 10
40.30580578154576
 20
-13.01004551991993
 30
0
 11
41.53310978496879
 21
-11.78274151649691
 31
0
  0
LINE
  8
1
 62
211
 10
36.221401019827
 20
-17.09445028163869
 30
0
 11
37.44886510510411
 21
-15.86698619636158
 31
0
  0
LINE
  8
1
 62
211
 10
40.38069276845177
 20
-13.07657988925124
 30
0
 11
41.60613705217538
 21
-11.85113560552762
 31
0
  0
LINE
  8
1
 62
211
 10
36.28979510885771
 20
-17.16747754884529
 30
0
 11
37.51539947443541
 21
-15.94187318326758
 31
0
  0
LINE
  8
1
 62
211
 10
40.45204638352549
 20
-13.14664763041482
 30
0
 11
41.67712017080289
 21
-11.92157384313742
 31
0
  0
LINE
  8
1
 62
211
 10
36.36023334646751
 20
-17.2384606674728
 30
0
 11
37.585467215599
 21
-16.01322679834131
 31
0
  0
LINE
  8
1
 62
211
 10
40.51989693273656
 20
-13.22021843744106
 30
0
 11
41.74640471359839
 21
-11.99371065657922
 31
0
  0
LINE
  8
1
 62
211
 10
36.43237015990931
 20
-17.3077452102683
 30
0
 11
37.65903802262525
 21
-16.08107734755237
 31
0
  0
LINE
  8
1
 62
211
 10
40.58424802008456
 20
-13.29728870633037
 30
0
 11
41.81360345984768
 21
-12.06793326656725
 31
0
  0
LINE
  8
1
 62
211
 10
36.50659276989734
 20
-17.37494395651759
 30
0
 11
37.73610829151455
 21
-16.14542843490037
 31
0
  0
LINE
  8
1
 62
211
 10
40.64505016159579
 20
-13.37790792105645
 30
0
 11
41.87909205440035
 21
-12.14386602825189
 31
0
  0
LINE
  8
1
 62
211
 10
36.58252553158199
 20
-17.44043255107025
 30
0
 11
37.81672750624062
 21
-16.20623057641161
 31
0
  0
LINE
  8
1
 62
211
 10
40.70222413311835
 20
-13.46215530577119
 30
0
 11
41.94251816689758
 21
-12.22186127199197
 31
0
  0
LINE
  8
1
 62
211
 10
36.66052077532206
 20
-17.50385866356749
 30
0
 11
37.90097489095537
 21
-16.26340454793417
 31
0
  0
LINE
  8
1
 62
211
 10
40.75565836356482
 20
-13.55014243156204
 30
0
 11
42.00415944387629
 21
-12.30164135125056
 31
0
  0
LINE
  8
1
 62
211
 10
36.74030085458065
 20
-17.5654999405462
 30
0
 11
37.98896201674621
 21
-16.31683877838064
 31
0
  0
LINE
  8
1
 62
211
 10
40.93588317947348
 20
-13.51133897189068
 30
0
 11
42.06375860121823
 21
-12.38346355014594
 31
0
  0
LINE
  8
1
 62
211
 10
36.82212305347603
 20
-17.62509909788814
 30
0
 11
38.08083660441557
 21
-16.3663855469486
 31
0
  0
LINE
  8
1
 62
211
 10
41.24308036160557
 20
-13.3455631459959
 30
0
 11
42.12146459451649
 21
-12.46717891308498
 31
0
  0
LINE
  8
1
 62
211
 10
36.90583841641507
 20
-17.6828050911864
 30
0
 11
38.17678778279346
 21
-16.41185572480801
 31
0
  0
LINE
  8
1
 62
211
 10
41.55027754373766
 20
-13.17978732010112
 30
0
 11
42.17715139900308
 21
-12.5529134648357
 31
0
  0
LINE
  8
1
 62
211
 10
36.99157296816579
 20
-17.73849189567299
 30
0
 11
38.27705318036373
 21
-16.45301168347505
 31
0
  0
LINE
  8
1
 62
211
 10
41.85747472586976
 20
-13.01401149420633
 30
0
 11
42.23079360976712
 21
-12.64069261030897
 31
0
  0
LINE
  8
1
 62
211
 10
37.07935211363907
 20
-17.79213410643703
 30
0
 11
38.38192839174729
 21
-16.48955782832881
 31
0
  0
LINE
  8
1
 62
211
 10
42.16467190800185
 20
-12.84823566831155
 30
0
 11
42.28244971369887
 21
-12.73045786261454
 31
0
  0
LINE
  8
1
 62
211
 10
37.16911736594463
 20
-17.84379021036877
 30
0
 11
38.49177959424277
 21
-16.52112798207063
 31
0
  0
LINE
  8
1
 62
211
 10
37.26113403806163
 20
-17.89319489448908
 30
0
 11
38.60706043141157
 21
-16.54726850113914
 31
0
  0
LINE
  8
1
 62
211
 10
37.35518253099894
 20
-17.94056775778908
 30
0
 11
38.72855224817381
 21
-16.5671980406142
 31
0
  0
LINE
  8
1
 62
211
 10
37.4515649137371
 20
-17.98560673128824
 30
0
 11
38.85692805642887
 21
-16.58024358859647
 31
0
  0
LINE
  8
1
 62
211
 10
37.55022450992507
 20
-18.02836849133757
 30
0
 11
38.99354187513901
 21
-16.58505112612364
 31
0
  0
LINE
  8
1
 62
211
 10
37.65115603311179
 20
-18.06885832438817
 30
0
 11
39.14002930170283
 21
-16.57998505579712
 31
0
  0
LINE
  8
1
 62
211
 10
37.7547249026622
 20
-18.10671081107506
 30
0
 11
39.29912642982935
 21
-16.56230928390791
 31
0
  0
LINE
  8
1
 62
211
 10
37.86080613537686
 20
-18.14205093459771
 30
0
 11
39.4751260890813
 21
-16.52773098089327
 31
0
  0
LINE
  8
1
 62
211
 10
37.96950564934393
 20
-18.17477277686795
 30
0
 11
39.67677090858681
 21
-16.46750751762507
 31
0
  0
LINE
  8
1
 62
211
 10
38.08106528441093
 20
-18.20463449803826
 30
0
 11
39.92655028714094
 21
-16.35914949530825
 31
0
  0
LINE
  8
1
 62
211
 10
38.19568254239832
 20
-18.23143859628819
 30
0
 11
40.86243830415064
 21
-15.56468283453591
 31
0
  0
LINE
  8
1
 62
211
 10
38.31341849734247
 20
-18.25512399758134
 30
0
 11
40.95429183784517
 21
-15.61425065707869
 31
0
  0
LINE
  8
1
 62
211
 10
38.43449784987239
 20
-18.27546600128873
 30
0
 11
41.04614537153969
 21
-15.66381847962147
 31
0
  0
LINE
  8
1
 62
211
 10
38.55918009934773
 20
-18.29220510805069
 30
0
 11
41.13799890523422
 21
-15.71338630216425
 31
0
  0
LINE
  8
1
 62
211
 10
38.68776643141241
 20
-18.30504013222332
 30
0
 11
41.22985243892875
 21
-15.76295412470703
 31
0
  0
LINE
  8
1
 62
211
 10
38.82060834768421
 20
-18.31361957218883
 30
0
 11
41.32170597262327
 21
-15.81252194724981
 31
0
  0
LINE
  8
1
 62
211
 10
38.95811857285938
 20
-18.31753070325098
 30
0
 11
41.4135595063178
 21
-15.86208976979259
 31
0
  0
LINE
  8
1
 62
211
 10
39.10078497144217
 20
-18.31628566090549
 30
0
 11
41.50541304001232
 21
-15.91165759233537
 31
0
  0
LINE
  8
1
 62
211
 10
39.24918848864709
 20
-18.30930349993789
 30
0
 11
41.59726657370685
 21
-15.96122541487815
 31
0
  0
LINE
  8
1
 62
211
 10
39.40431261684263
 20
-18.29560072797965
 30
0
 11
41.68912010740137
 21
-16.01079323742093
 31
0
  0
LINE
  8
1
 62
211
 10
39.56711112917072
 20
-18.27422357188887
 30
0
 11
41.7809736410959
 21
-16.06036105996371
 31
0
  0
LINE
  8
1
 62
211
 10
39.73905203851849
 20
-18.24370401877841
 30
0
 11
41.87282717479042
 21
-16.10992888250649
 31
0
  0
LINE
  8
1
 62
211
 10
39.92209374979686
 20
-18.20208366373735
 30
0
 11
41.96468070848495
 21
-16.15949670504927
 31
0
  0
LINE
  8
1
 62
211
 10
40.11943025336105
 20
-18.14616851641047
 30
0
 11
42.05653424217947
 21
-16.20906452759206
 31
0
  0
LINE
  8
1
 62
211
 10
40.33578642599367
 20
-18.07123370001516
 30
0
 11
42.148387775874
 21
-16.25863235013484
 31
0
  0
LINE
  8
1
 62
211
 10
40.58050533592978
 20
-17.96793614631636
 30
0
 11
42.24024130956852
 21
-16.30820017267762
 31
0
  0
LINE
  8
1
 62
211
 10
40.87459963129957
 20
-17.81526320718388
 30
0
 11
42.25392271051396
 21
-16.43594012796949
 31
0
  0
LINE
  8
1
 62
211
 10
41.30720892546294
 20
-17.52407526925782
 30
0
 11
41.96273477258788
 21
-16.86854942213287
 31
0
  0
ENDBLK
  8
0
  0
BLOCK
  8
1
  2
*X2
 70
1
 10
0
 20
0
 30
0
  0
LINE
  8
1
 62
211
 10
25.80039527710553
 20
-11.95910683825612
 30
0
 11
26.50199380979879
 21
-11.25750830556285
 31
0
  0
LINE
  8
1
 62
211
 10
25.63999710247351
 20
-12.26092636912544
 30
0
 11
26.80381334066812
 21
-11.09711013093083
 31
0
  0
LINE
  8
1
 62
211
 10
25.55494249092172
 20
-12.48740233691454
 30
0
 11
27.03028930845722
 21
-11.01205551937904
 31
0
  0
LINE
  8
1
 62
211
 10
25.50325296734477
 20
-12.68051321672881
 30
0
 11
27.22340018827148
 21
-10.96036599580209
 31
0
  0
LINE
  8
1
 62
211
 10
25.47201849978726
 20
-12.85316904052362
 30
0
 11
27.3960560120663
 21
-10.92913152824458
 31
0
  0
LINE
  8
1
 62
211
 10
25.45544958087416
 20
-13.01115931567403
 30
0
 11
27.55404628721671
 21
-10.91256260933149
 31
0
  0
LINE
  8
1
 62
211
 10
25.45008709332932
 20
-13.15794315945618
 30
0
 11
27.70083013099886
 21
-10.90720012178664
 31
0
  0
LINE
  8
1
 62
211
 10
25.45368099039806
 20
-13.29577061862475
 30
0
 11
27.84233762033751
 21
-10.9071139886853
 31
0
  0
LINE
  8
1
 62
211
 10
25.46486487878084
 20
-13.42600808647927
 30
0
 11
27.98375897657482
 21
-10.9071139886853
 31
0
  0
LINE
  8
1
 62
211
 10
25.48254611119035
 20
-13.54974821030708
 30
0
 11
28.12518033281213
 21
-10.9071139886853
 31
0
  0
LINE
  8
1
 62
211
 10
25.50599849346528
 20
-13.66771718426945
 30
0
 11
28.26660168904944
 21
-10.9071139886853
 31
0
  0
LINE
  8
1
 62
211
 10
25.53464246898152
 20
-13.78049456499053
 30
0
 11
28.40802304528675
 21
-10.9071139886853
 31
0
  0
LINE
  8
1
 62
211
 10
25.56801140789277
 20
-13.88854698231659
 30
0
 11
28.54944440152406
 21
-10.9071139886853
 31
0
  0
LINE
  8
1
 62
211
 10
25.60572709735552
 20
-13.99225264909115
 30
0
 11
28.69086575776137
 21
-10.9071139886853
 31
0
  0
LINE
  8
1
 62
211
 10
25.64748166999734
 20
-14.09191943268663
 30
0
 11
28.83228711399867
 21
-10.9071139886853
 31
0
  0
LINE
  8
1
 62
211
 10
25.69311964771639
 20
-14.18770281120489
 30
0
 11
28.97370847023598
 21
-10.9071139886853
 31
0
  0
LINE
  8
1
 62
211
 10
25.74242121315356
 20
-14.27982260200503
 30
0
 11
29.11512982647329
 21
-10.9071139886853
 31
0
  0
LINE
  8
1
 62
211
 10
27.45870730347272
 20
-12.70495786792318
 30
0
 11
29.2565511827106
 21
-10.9071139886853
 31
0
  0
LINE
  8
1
 62
211
 10
25.79515362398156
 20
-14.36851154741435
 30
0
 11
27.24784483946586
 21
-12.91582033193004
 31
0
  0
LINE
  8
1
 62
211
 10
27.66206251676081
 20
-12.64302401087241
 30
0
 11
29.39797253894791
 21
-10.9071139886853
 31
0
  0
LINE
  8
1
 62
211
 10
25.85134893899532
 20
-14.45373758863789
 30
0
 11
27.18591098241508
 21
-13.11917554521813
 31
0
  0
LINE
  8
1
 62
211
 10
27.80575965303463
 20
-12.6407482308359
 30
0
 11
29.53939389518522
 21
-10.9071139886853
 31
0
  0
LINE
  8
1
 62
211
 10
25.91078192938395
 20
-14.53572595448657
 30
0
 11
27.19098441208564
 21
-13.25552347178489
 31
0
  0
LINE
  8
1
 62
211
 10
27.94718100927194
 20
-12.6407482308359
 30
0
 11
29.68081525142253
 21
-10.9071139886853
 31
0
  0
LINE
  8
1
 62
211
 10
25.97344192917318
 20
-14.61448731093465
 30
0
 11
27.22216876662818
 21
-13.36576047347965
 31
0
  0
LINE
  8
1
 62
211
 10
28.08860236550925
 20
-12.6407482308359
 30
0
 11
29.82223660765984
 21
-10.9071139886853
 31
0
  0
LINE
  8
1
 62
211
 10
26.03928369973943
 20
-14.69006689660571
 30
0
 11
27.27092371539194
 21
-13.45842688095319
 31
0
  0
LINE
  8
1
 62
211
 10
28.23002372174656
 20
-12.6407482308359
 30
0
 11
29.96365796389715
 21
-10.9071139886853
 31
0
  0
LINE
  8
1
 62
211
 10
26.10823009115552
 20
-14.76254186142693
 30
0
 11
27.33409529539871
 21
-13.53667665718374
 31
0
  0
LINE
  8
1
 62
211
 10
28.37144507798386
 20
-12.6407482308359
 30
0
 11
30.10482604739421
 21
-10.90736726142555
 31
0
  0
LINE
  8
1
 62
211
 10
26.18035746457641
 20
-14.83183584424335
 30
0
 11
27.41080501104918
 21
-13.60138829777058
 31
0
  0
LINE
  8
1
 62
211
 10
28.51286643422117
 20
-12.6407482308359
 30
0
 11
30.23876154247551
 21
-10.91485312258156
 31
0
  0
LINE
  8
1
 62
211
 10
26.25555129877479
 20
-14.89806336628227
 30
0
 11
27.50175854724823
 21
-13.65185611780884
 31
0
  0
LINE
  8
1
 62
211
 10
28.65428779045848
 20
-12.6407482308359
 30
0
 11
30.36377210219314
 21
-10.93126391910124
 31
0
  0
LINE
  8
1
 62
211
 10
26.33399789255935
 20
-14.96103812873503
 30
0
 11
27.60972464951158
 21
-13.6853113717828
 31
0
  0
LINE
  8
1
 62
211
 10
28.79570914669579
 20
-12.6407482308359
 30
0
 11
30.48120810720949
 21
-10.9552492703222
 31
0
  0
LINE
  8
1
 62
211
 10
26.41555885164751
 20
-15.02089852588418
 30
0
 11
27.74135947538788
 21
-13.69509790214381
 31
0
  0
LINE
  8
1
 62
211
 10
28.9371305029331
 20
-12.6407482308359
 30
0
 11
30.5920541833734
 21
-10.9858245503956
 31
0
  0
LINE
  8
1
 62
211
 10
26.50049546027459
 20
-15.07738327349441
 30
0
 11
27.88278083162519
 21
-13.69509790214381
 31
0
  0
LINE
  8
1
 62
211
 10
29.07855185917041
 20
-12.6407482308359
 30
0
 11
30.69705081754966
 21
-11.02224927245665
 31
0
  0
LINE
  8
1
 62
211
 10
26.58874152774557
 20
-15.13055856226074
 30
0
 11
28.0242021878625
 21
-13.69509790214381
 31
0
  0
LINE
  8
1
 62
211
 10
29.21997321540772
 20
-12.6407482308359
 30
0
 11
30.79659217301474
 21
-11.06412927322888
 31
0
  0
LINE
  8
1
 62
211
 10
26.68046347783037
 20
-15.18025796841325
 30
0
 11
28.16562354409981
 21
-13.69509790214381
 31
0
  0
LINE
  8
1
 62
211
 10
29.36139457164503
 20
-12.6407482308359
 30
0
 11
30.89125577735912
 21
-11.11088702512181
 31
0
  0
LINE
  8
1
 62
211
 10
26.77587596715453
 20
-15.2262668353264
 30
0
 11
28.30704490033712
 21
-13.69509790214381
 31
0
  0
LINE
  8
1
 62
211
 10
25.50254260317967
 20
-16.49960019930126
 30
0
 11
25.51906098687873
 21
-16.4830818156022
 31
0
  0
LINE
  8
1
 62
211
 10
29.50281592788234
 20
-12.6407482308359
 30
0
 11
30.98117848355987
 21
-11.16238567515836
 31
0
  0
LINE
  8
1
 62
211
 10
26.875057696109
 20
-15.26850646260924
 30
0
 11
28.44846625657443
 21
-13.69509790214381
 31
0
  0
LINE
  8
1
 62
211
 10
25.50902976805724
 20
-16.634534390661
 30
0
 11
25.66048234311604
 21
-16.4830818156022
 31
0
  0
LINE
  8
1
 62
211
 10
29.64423728411965
 20
-12.6407482308359
 30
0
 11
31.06672136139609
 21
-11.21826415355946
 31
0
  0
LINE
  8
1
 62
211
 10
26.97825568632984
 20
-15.30672982862571
 30
0
 11
28.58988761281174
 21
-13.69509790214381
 31
0
  0
LINE
  8
1
 62
211
 10
25.52474027451637
 20
-16.76024524043918
 30
0
 11
25.80190369935335
 21
-16.4830818156022
 31
0
  0
LINE
  8
1
 62
211
 10
29.78565864035696
 20
-12.6407482308359
 30
0
 11
31.14795088216778
 21
-11.27845598902508
 31
0
  0
LINE
  8
1
 62
211
 10
27.08580048088399
 20
-15.34060639030887
 30
0
 11
28.73130896904905
 21
-13.69509790214381
 31
0
  0
LINE
  8
1
 62
211
 10
25.5480918753596
 20
-16.87831499583326
 30
0
 11
25.94332505559066
 21
-16.4830818156022
 31
0
  0
LINE
  8
1
 62
211
 10
29.92707999659427
 20
-12.6407482308359
 30
0
 11
31.22500228202466
 21
-11.34282594540551
 31
0
  0
LINE
  8
1
 62
211
 10
27.1980460424341
 20
-15.36978218499607
 30
0
 11
28.87273032528635
 21
-13.69509790214381
 31
0
  0
LINE
  8
1
 62
211
 10
25.57808850080509
 20
-16.98973972662507
 30
0
 11
26.08474641182797
 21
-16.4830818156022
 31
0
  0
LINE
  8
1
 62
211
 10
30.06850135283157
 20
-12.6407482308359
 30
0
 11
31.29798527408739
 21
-11.41126430958009
 31
0
  0
LINE
  8
1
 62
211
 10
27.31538882414156
 20
-15.39386075952592
 30
0
 11
29.01415168152366
 21
-13.69509790214381
 31
0
  0
LINE
  8
1
 62
211
 10
25.61410129349483
 20
-17.09514829017264
 30
0
 11
26.22616776806528
 21
-16.4830818156022
 31
0
  0
LINE
  8
1
 62
211
 10
30.20992270906888
 20
-12.6407482308359
 30
0
 11
31.36687027909895
 21
-11.48380066080583
 31
0
  0
LINE
  8
1
 62
211
 10
27.43843127991233
 20
-15.41223965999245
 30
0
 11
29.15557303776097
 21
-13.69509790214381
 31
0
  0
LINE
  8
1
 62
211
 10
25.65546516377565
 20
-17.19520577612914
 30
0
 11
26.36758912430259
 21
-16.4830818156022
 31
0
  0
LINE
  8
1
 62
211
 10
30.35134406530619
 20
-12.6407482308359
 30
0
 11
31.43162561091849
 21
-11.5604666852236
 31
0
  0
LINE
  8
1
 62
211
 10
27.56795790170173
 20
-15.42413439444036
 30
0
 11
29.29699439399828
 21
-13.69509790214381
 31
0
  0
LINE
  8
1
 62
211
 10
25.70183047789929
 20
-17.29026181824281
 30
0
 11
26.5090104805399
 21
-16.4830818156022
 31
0
  0
LINE
  8
1
 62
211
 10
30.4927654215435
 20
-12.6407482308359
 30
0
 11
31.4922598960123
 21
-11.64125375636711
 31
0
  0
LINE
  8
1
 62
211
 10
27.7048327111984
 20
-15.42868094118101
 30
0
 11
29.43841575023559
 21
-13.69509790214381
 31
0
  0
LINE
  8
1
 62
211
 10
25.75287772423986
 20
-17.38063592813954
 30
0
 11
26.65043183677721
 21
-16.4830818156022
 31
0
  0
LINE
  8
1
 62
211
 10
30.63418677778081
 20
-12.6407482308359
 30
0
 11
31.54861708680057
 21
-11.72631792181614
 31
0
  0
LINE
  8
1
 62
211
 10
27.84620286432233
 20
-15.42873214429439
 30
0
 11
29.5798371064729
 21
-13.69509790214381
 31
0
  0
LINE
  8
1
 62
211
 10
25.80841098891307
 20
-17.46652401970364
 30
0
 11
26.79185319301452
 21
-16.4830818156022
 31
0
  0
LINE
  8
1
 62
211
 10
30.77560813401812
 20
-12.6407482308359
 30
0
 11
31.6005256614832
 21
-11.81583070337082
 31
0
  0
LINE
  8
1
 62
211
 10
27.98762422055963
 20
-15.42873214429439
 30
0
 11
29.72125846271021
 21
-13.69509790214381
 31
0
  0
LINE
  8
1
 62
211
 10
25.86818766774048
 20
-17.54816869711355
 30
0
 11
26.93327454925183
 21
-16.4830818156022
 31
0
  0
LINE
  8
1
 62
211
 10
30.91702949025543
 20
-12.6407482308359
 30
0
 11
31.64785060822127
 21
-11.90992711287007
 31
0
  0
LINE
  8
1
 62
211
 10
28.12904557679694
 20
-15.42873214429439
 30
0
 11
29.86151041639447
 21
-13.69626730469687
 31
0
  0
LINE
  8
1
 62
211
 10
25.93218966730702
 20
-17.62558805378431
 30
0
 11
27.07469590548914
 21
-16.4830818156022
 31
0
  0
LINE
  8
1
 62
211
 10
31.05845084649274
 20
-12.6407482308359
 30
0
 11
31.69017599397955
 21
-12.00902308334909
 31
0
  0
LINE
  8
1
 62
211
 10
28.27046693303425
 20
-15.42873214429439
 30
0
 11
29.99480102891077
 21
-13.70439804841787
 31
0
  0
LINE
  8
1
 62
211
 10
26.0002973475928
 20
-17.69890172973584
 30
0
 11
27.21611726172645
 21
-16.4830818156022
 31
0
  0
LINE
  8
1
 62
211
 10
31.19987220273005
 20
-12.6407482308359
 30
0
 11
31.72722648099584
 21
-12.11339395257011
 31
0
  0
LINE
  8
1
 62
211
 10
28.41188828927156
 20
-15.42873214429439
 30
0
 11
30.12113318257335
 21
-13.7194872509926
 31
0
  0
LINE
  8
1
 62
211
 10
26.07245251639213
 20
-17.76816791717382
 30
0
 11
27.35753861796375
 21
-16.4830818156022
 31
0
  0
LINE
  8
1
 62
211
 10
31.34129355896736
 20
-12.6407482308359
 30
0
 11
31.7584752991494
 21
-12.22356649065386
 31
0
  0
LINE
  8
1
 62
211
 10
28.55330964550887
 20
-15.42873214429439
 30
0
 11
30.24143193515838
 21
-13.74060985464488
 31
0
  0
LINE
  8
1
 62
211
 10
26.14872615743858
 20
-17.83331563236468
 30
0
 11
27.49895997420106
 21
-16.4830818156022
 31
0
  0
LINE
  8
1
 62
211
 10
31.48271491520467
 20
-12.6407482308359
 30
0
 11
31.78319449656318
 21
-12.34026864947739
 31
0
  0
LINE
  8
1
 62
211
 10
28.69473100174618
 20
-15.42873214429439
 30
0
 11
30.35632792285841
 21
-13.76713522318216
 31
0
  0
LINE
  8
1
 62
211
 10
26.22917641955556
 20
-17.89428672648501
 30
0
 11
27.64038133043837
 21
-16.4830818156022
 31
0
  0
LINE
  8
1
 62
211
 10
31.62413627144198
 20
-12.6407482308359
 30
0
 11
31.80041618837047
 21
-12.46446831390741
 31
0
  0
LINE
  8
1
 62
211
 10
28.83615235798349
 20
-15.42873214429439
 30
0
 11
30.46632763678285
 21
-13.79855686549503
 31
0
  0
LINE
  8
1
 62
211
 10
26.31383472296863
 20
-17.95104977930924
 30
0
 11
27.78180268667568
 21
-16.4830818156022
 31
0
  0
LINE
  8
1
 62
211
 10
31.76555762767929
 20
-12.6407482308359
 30
0
 11
31.80883314159541
 21
-12.59747271691977
 31
0
  0
LINE
  8
1
 62
211
 10
28.9775737142208
 20
-15.42873214429439
 30
0
 11
30.57184091217901
 21
-13.83446494633617
 31
0
  0
LINE
  8
1
 62
211
 10
26.40294064768374
 20
-18.00336521083145
 30
0
 11
27.92322404291299
 21
-16.4830818156022
 31
0
  0
LINE
  8
1
 62
211
 10
29.11899507045811
 20
-15.42873214429439
 30
0
 11
30.67319125272005
 21
-13.87453596203245
 31
0
  0
LINE
  8
1
 62
211
 10
26.49664534620562
 20
-18.05108186854688
 30
0
 11
28.0646453991503
 21
-16.4830818156022
 31
0
  0
LINE
  8
1
 62
211
 10
29.26041642669542
 20
-15.42873214429439
 30
0
 11
30.77052062644525
 21
-13.91862794454455
 31
0
  0
LINE
  8
1
 62
211
 10
26.59525895959663
 20
-18.09388961139317
 30
0
 11
28.20606675538761
 21
-16.4830818156022
 31
0
  0
LINE
  8
1
 62
211
 10
29.40183778293273
 20
-15.42873214429439
 30
0
 11
30.8641732174128
 21
-13.96639670981432
 31
0
  0
LINE
  8
1
 62
211
 10
26.69910667791487
 20
-18.13146324931225
 30
0
 11
28.34748811162492
 21
-16.4830818156022
 31
0
  0
LINE
  8
1
 62
211
 10
29.54325913917004
 20
-15.42873214429439
 30
0
 11
30.95432352973451
 21
-14.01766775372992
 31
0
  0
LINE
  8
1
 62
211
 10
26.80879697115352
 20
-18.16319431231091
 30
0
 11
28.48890946786223
 21
-16.4830818156022
 31
0
  0
LINE
  8
1
 62
211
 10
29.68468049540735
 20
-15.42873214429439
 30
0
 11
31.04093686054653
 21
-14.07247577915521
 31
0
  0
LINE
  8
1
 62
211
 10
26.9249037977006
 20
-18.18850884200114
 30
0
 11
28.63033082409954
 21
-16.4830818156022
 31
0
  0
LINE
  8
1
 62
211
 10
29.82495977177739
 20
-15.42987422416165
 30
0
 11
31.12431149896487
 21
-14.13052249697418
 31
0
  0
LINE
  8
1
 62
211
 10
27.04835176691638
 20
-18.20648222902267
 30
0
 11
28.77175218033685
 21
-16.4830818156022
 31
0
  0
LINE
  8
1
 62
211
 10
29.94452287768733
 20
-15.45173247448903
 30
0
 11
31.20439638784536
 21
-14.191858964331
 31
0
  0
LINE
  8
1
 62
211
 10
27.18046611377963
 20
-18.21578923839673
 30
0
 11
28.91317353657416
 21
-16.4830818156022
 31
0
  0
LINE
  8
1
 62
211
 10
30.04398779347645
 20
-15.49368891493722
 30
0
 11
31.28131631947643
 21
-14.25636038893724
 31
0
  0
LINE
  8
1
 62
211
 10
27.32096065066098
 20
-18.21671605775269
 30
0
 11
29.05459489281147
 21
-16.4830818156022
 31
0
  0
LINE
  8
1
 62
211
 10
30.12808779445886
 20
-15.55101027019211
 30
0
 11
31.3550898731183
 21
-14.32400819153267
 31
0
  0
LINE
  8
1
 62
211
 10
27.46238200689829
 20
-18.21671605775269
 30
0
 11
29.19601624904877
 21
-16.4830818156022
 31
0
  0
LINE
  8
1
 62
211
 10
30.19847178764597
 20
-15.62204763324231
 30
0
 11
31.42571170887996
 21
-14.39480771200833
 31
0
  0
LINE
  8
1
 62
211
 10
27.6038033631356
 20
-18.21671605775269
 30
0
 11
29.33743760528608
 21
-16.4830818156022
 31
0
  0
LINE
  8
1
 62
211
 10
30.25511484868746
 20
-15.70682592843813
 30
0
 11
31.49324084418564
 21
-14.46869993293995
 31
0
  0
LINE
  8
1
 62
211
 10
27.74522471937291
 20
-18.21671605775269
 30
0
 11
29.47885896152339
 21
-16.4830818156022
 31
0
  0
LINE
  8
1
 62
211
 10
30.2962341538461
 20
-15.80712797951681
 30
0
 11
31.55756322309204
 21
-14.54579891027086
 31
0
  0
LINE
  8
1
 62
211
 10
27.88664607561022
 20
-18.21671605775269
 30
0
 11
29.6202803177607
 21
-16.4830818156022
 31
0
  0
LINE
  8
1
 62
211
 10
30.31693286454762
 20
-15.92785062505259
 30
0
 11
31.618779195502
 21
-14.62600429409822
 31
0
  0
LINE
  8
1
 62
211
 10
28.02806743184752
 20
-18.21671605775269
 30
0
 11
29.76170167399801
 21
-16.4830818156022
 31
0
  0
LINE
  8
1
 62
211
 10
30.30176698894689
 20
-16.08443785689063
 30
0
 11
31.67664270026927
 21
-14.70956214556825
 31
0
  0
LINE
  8
1
 62
211
 10
28.16948878808483
 20
-18.21671605775269
 30
0
 11
29.91903988702906
 21
-16.46716495880847
 31
0
  0
LINE
  8
1
 62
211
 10
28.31091014432214
 20
-18.21671605775269
 30
0
 11
31.73126356352327
 21
-14.79636263855156
 31
0
  0
LINE
  8
1
 62
211
 10
28.45233150055945
 20
-18.21671605775269
 30
0
 11
31.78240705381037
 21
-14.88664050450178
 31
0
  0
LINE
  8
1
 62
211
 10
28.59375285679676
 20
-18.21671605775269
 30
0
 11
31.82997936146989
 21
-14.98048955307956
 31
0
  0
LINE
  8
1
 62
211
 10
28.73517421303407
 20
-18.21671605775269
 30
0
 11
31.87386745654089
 21
-15.07802281424587
 31
0
  0
LINE
  8
1
 62
211
 10
28.87659556927138
 20
-18.21671605775269
 30
0
 11
31.91379762993395
 21
-15.17951399709012
 31
0
  0
LINE
  8
1
 62
211
 10
29.01801692550869
 20
-18.21671605775269
 30
0
 11
31.9494857219905
 21
-15.28524726127088
 31
0
  0
LINE
  8
1
 62
211
 10
29.159438281746
 20
-18.21671605775269
 30
0
 11
31.98067503549743
 21
-15.39547930400126
 31
0
  0
LINE
  8
1
 62
211
 10
29.30085963798331
 20
-18.21671605775269
 30
0
 11
32.00695327407726
 21
-15.51062242165873
 31
0
  0
LINE
  8
1
 62
211
 10
29.44228099422062
 20
-18.21671605775269
 30
0
 11
32.02781098681652
 21
-15.63118606515679
 31
0
  0
LINE
  8
1
 62
211
 10
29.58370235045793
 20
-18.21671605775269
 30
0
 11
32.04261392482486
 21
-15.75780448338575
 31
0
  0
LINE
  8
1
 62
211
 10
29.72512370669524
 20
-18.21671605775269
 30
0
 11
32.05032183594437
 21
-15.89151792850356
 31
0
  0
LINE
  8
1
 62
211
 10
29.86788129275379
 20
-18.21537982793144
 30
0
 11
32.04998185806987
 21
-16.03327926261536
 31
0
  0
LINE
  8
1
 62
211
 10
30.01966023470867
 20
-18.20502224221388
 30
0
 11
32.03962427235231
 21
-16.18505820457023
 31
0
  0
LINE
  8
1
 62
211
 10
30.18387898561658
 20
-18.18222484754327
 30
0
 11
32.0168268776817
 21
-16.34927695547815
 31
0
  0
LINE
  8
1
 62
211
 10
30.36512032160753
 20
-18.14240486778963
 30
0
 11
31.97700689792806
 21
-16.53051829146911
 31
0
  0
LINE
  8
1
 62
211
 10
30.57145219767648
 20
-18.07749434795799
 30
0
 11
31.91209637809643
 21
-16.73685016753804
 31
0
  0
LINE
  8
1
 62
211
 10
30.82350547099459
 20
-17.96686243087719
 30
0
 11
31.80146446101562
 21
-16.98890344085616
 31
0
  0
LINE
  8
1
 62
211
 10
31.2455911382065
 20
-17.6861981199026
 30
0
 11
31.52080015004103
 21
-17.41098910806807
 31
0
  0
ENDBLK
  8
0
  0
BLOCK
  8
0
  2
LOGO__SICK_AG
 70
0
 10
25.00497088700821
 20
-14.55815921380709
 30
0
  0
INSERT
  8
1
  2
*X0
 10
0
 20
0
 30
0
  0
INSERT
  8
1
  2
*X1
 10
0
 20
0
 30
0
  0
INSERT
  8
1
  2
*X2
 10
0
 20
0
 30
0
  0
SOLID
  8
1
 62
211
 10
34.48906988144053
 20
-18.21671605775261
 30
0
 11
34.48906988144053
 21
-10.9071139886853
 31
0
 12
32.72626390925411
 22
-18.21671605775269
 32
0
 13
32.72626390925411
 23
-10.9071139886853
 33
0
  0
POLYLINE
  8
1
 62
211
 66
1
 70
1
  0
VERTEX
  8
1
 10
42.30541627848062
 20
-12.77228440438971
 30
0
  0
VERTEX
  8
1
 10
40.78070457782799
 20
-13.595079521431
 30
0
 42
3.958778999498072
  0
VERTEX
  8
1
 10
40.78070457782799
 20
-15.52057606281831
 30
0
  0
VERTEX
  8
1
 10
42.30555047633977
 20
-16.34344359836551
 30
0
 42
-3.958778507163953
  0
VERTEX
  8
1
 10
42.30541627848062
 20
-12.77228440438971
 30
0
  0
SEQEND
  8
1
  0
POLYLINE
  8
1
 62
211
 66
1
 70
1
  0
VERTEX
  8
1
 10
32.72626390925411
 20
-10.9071139886853
 30
0
  0
VERTEX
  8
1
 10
32.72626390925411
 20
-18.21671605775269
 30
0
  0
VERTEX
  8
1
 10
34.48906988144053
 20
-18.21671605775261
 30
0
  0
VERTEX
  8
1
 10
34.48906988144053
 20
-10.9071139886853
 30
0
  0
VERTEX
  8
1
 10
32.72626390925411
 20
-10.9071139886853
 30
0
  0
SEQEND
  8
1
  0
POLYLINE
  8
1
 62
211
 66
1
 70
1
  0
VERTEX
  8
1
 10
46.97873772693391
 20
-14.56608241322409
 30
0
  0
VERTEX
  8
1
 10
49.4499999999996
 20
-10.9071139886853
 30
0
  0
VERTEX
  8
1
 10
47.29545936732679
 20
-10.9071139886853
 30
0
  0
VERTEX
  8
1
 10
45.44930559503662
 20
-13.79511526226791
 30
0
  0
VERTEX
  8
1
 10
44.75751885417851
 20
-13.79511526226791
 30
0
  0
VERTEX
  8
1
 10
44.75751885417829
 20
-10.9071139886853
 30
0
  0
VERTEX
  8
1
 10
43.00721505200751
 20
-10.9071139886853
 30
0
  0
VERTEX
  8
1
 10
43.00721505200723
 20
-18.21671605775261
 30
0
  0
VERTEX
  8
1
 10
44.75751885417829
 20
-18.21671605775261
 30
0
  0
VERTEX
  8
1
 10
44.75751885417829
 20
-15.3453843441908
 30
0
  0
VERTEX
  8
1
 10
45.44930559503668
 20
-15.34538434419089
 30
0
  0
VERTEX
  8
1
 10
47.29545936732701
 20
-18.21671605775269
 30
0
  0
VERTEX
  8
1
 10
49.4499999999996
 20
-18.21671605775261
 30
0
  0
VERTEX
  8
1
 10
46.97873772693391
 20
-14.56608241322409
 30
0
  0
SEQEND
  8
1
  0
LINE
  8
1
 62
211
 10
29.79043715853522
 20
-15.42873214429439
 30
0
 11
27.71289373303479
 21
-15.42873214429439
 31
0
  0
LINE
  8
1
 62
211
 10
25.50239844942901
 20
-16.4830818156022
 30
0
 11
29.79043715853522
 21
-16.4830818156022
 31
0
  0
LINE
  8
1
 62
211
 10
29.78842531508441
 20
-18.21671605775269
 30
0
 11
27.23603269157958
 21
-18.21671605775269
 31
0
  0
LINE
  8
1
 62
211
 10
27.7108818895842
 20
-13.69509790214381
 30
0
 11
29.78842531508441
 21
-13.69509790214381
 31
0
  0
LINE
  8
1
 62
211
 10
31.80943810811659
 20
-12.6407482308359
 30
0
 11
27.7108818895842
 21
-12.6407482308359
 31
0
  0
LINE
  8
1
 62
211
 10
27.71289373303501
 20
-10.9071139886853
 30
0
 11
30.07580386596602
 21
-10.9071139886853
 31
0
  0
ARC
  8
1
 62
211
 10
27.23603269157958
 20
-16.4830818156022
 30
0
 40
1.733634242150572
 50
180
 51
270
  0
ARC
  8
1
 62
211
 10
29.79050901008692
 20
-15.95590697994849
 30
0
 40
0.5271748405502331
 50
269.9921908437959
 51
90.00780915620413
  0
ARC
  8
1
 62
211
 10
29.79050901008692
 20
-15.95590697994849
 30
0
 40
2.26081003803211
 50
269.9471928448962
 51
90.05280715510384
  0
ARC
  8
1
 62
211
 10
30.07580386596602
 20
-12.6407482308358
 30
0
 40
1.733634242150572
 50
359.9999999999967
 51
90
  0
ARC
  8
1
 62
211
 10
27.71081003803239
 20
-13.16792306648971
 30
0
 40
0.5271748405503308
 50
89.9921908437839
 51
270.0078091562161
  0
ARC
  8
1
 62
211
 10
27.71081003803239
 20
-13.16792306648971
 30
0
 40
2.260810038032318
 50
89.94719284489337
 51
270.052807155101
  0
ENDBLK
  8
0
  0
BLOCK
  8
0
  2
_ANSCHRIFT_WALDKIRCH
 70
0
 10
50.45
 20
-28.00900000000011
 30
0
  0
LINE
  8
1
 62
7
 10
24.45
 20
-22.53400000000001
 30
0
 11
50.45
 21
-22.53400000000001
 31
0
  0
TEXT
  8
1
 62
2
 10
29.85447671605978
 20
-26.13400000000011
 30
0
 40
2
  1
D-79183 Waldkirch
 41
0.7
  0
ENDBLK
  8
0
  0
BLOCK
  8
0
  2
_DINA4_K
 70
0
 10
43.575
 20
115.241
 30
0
  0
LINE
  8
1
 62
7
 10
24.45
 20
-1.684000000000097
 30
0
 11
66.50000000000001
 21
-1.684000000000097
 31
0
  0
LINE
  8
1
 62
7
 10
24.45
 20
-1.434000000000097
 30
0
 11
66.50000000000001
 21
-1.434000000000097
 31
0
  0
LINE
  8
1
 62
7
 10
143.325
 20
-28.00900000000011
 30
0
 11
143.3250000000001
 21
10.791
 31
0
  0
LINE
  8
1
 62
7
 10
-41.175
 20
10.791
 30
0
 11
143.3250000000001
 21
10.791
 31
0
  0
LINE
  8
1
 62
2
 10
-61.425
 20
263.7409999999999
 30
0
 11
-61.425
 21
-33.25900000000011
 31
0
  0
LINE
  8
1
 62
2
 10
148.575
 20
-33.259
 30
0
 11
148.575
 21
263.741
 31
0
  0
LINE
  8
1
 62
7
 10
143.575
 20
258.7409999999999
 30
0
 11
143.575
 21
-28.25900000000011
 31
0
  0
LINE
  8
1
 62
7
 10
143.575
 20
258.7409999999999
 30
0
 11
-41.425
 21
258.741
 31
0
  0
LINE
  8
1
 62
2
 10
148.575
 20
263.741
 30
0
 11
-61.425
 21
263.7409999999999
 31
0
  0
LINE
  8
1
 62
2
 10
-61.425
 20
115.241
 30
0
 11
-46.425
 21
115.241
 31
0
  0
LINE
  8
1
 62
7
 10
-41.425
 20
-28.25900000000011
 30
0
 11
-41.425
 21
258.741
 31
0
  0
LINE
  8
1
 62
2
 10
-61.425
 20
-33.25900000000011
 30
0
 11
148.575
 21
-33.259
 31
0
  0
LINE
  8
1
 62
7
 10
66.75000000000001
 20
10.541
 30
0
 11
66.75000000000001
 21
-28.00900000000011
 31
0
  0
LINE
  8
1
 62
7
 10
50.45
 20
-5.7590000000001
 30
0
 11
50.45
 21
-28.00900000000011
 31
0
  0
LINE
  8
1
 62
7
 10
66.75000000000001
 20
2.515999999999906
 30
0
 11
143.325
 21
2.515999999999906
 31
0
  0
LINE
  8
1
 62
2
 10
66.75000000000001
 20
-24.0590000000001
 30
0
 11
117.2354441589785
 21
-24.0590000000001
 31
0
  0
LINE
  8
1
 62
2
 10
66.75000000000001
 20
-19.98400000000011
 30
0
 11
117.2354441589785
 21
-19.98400000000011
 31
0
  0
LINE
  8
1
 62
7
 10
143.325
 20
-5.6340000000001
 30
0
 11
66.75000000000013
 21
-5.6340000000001
 31
0
  0
LINE
  8
1
 62
4
 10
24.45
 20
6.590999999999994
 30
0
 11
66.50000000000001
 21
6.590999999999994
 31
0
  0
LINE
  8
1
 62
2
 10
-2.049999999999997
 20
10.541
 30
0
 11
-2.049999999999997
 21
-28.00900000000011
 31
0
  0
LINE
  8
1
 62
2
 10
-25.925
 20
10.541
 30
0
 11
-25.925
 21
-28.00900000000011
 31
0
  0
LINE
  8
1
 62
2
 10
-36.925
 20
10.541
 30
0
 11
-36.925
 21
-28.00900000000011
 31
0
  0
LINE
  8
1
 62
2
 10
-41.175
 20
6.590999999999994
 30
0
 11
24.2
 21
6.590999999999994
 31
0
  0
LINE
  8
1
 62
2
 10
-41.175
 20
-1.559000000000097
 30
0
 11
24.45
 21
-1.559000000000097
 31
0
  0
LINE
  8
1
 62
7
 10
-41.425
 20
-28.25900000000011
 30
0
 11
143.575
 21
-28.25900000000011
 31
0
  0
LINE
  8
1
 62
7
 10
-41.175
 20
-28.00900000000011
 30
0
 11
143.325
 21
-28.00900000000011
 31
0
  0
LINE
  8
1
 62
7
 10
-41.175
 20
10.541
 30
0
 11
143.3250000000001
 21
10.541
 31
0
  0
LINE
  8
1
 62
7
 10
24.45
 20
10.541
 30
0
 11
24.45
 21
-28.00900000000011
 31
0
  0
LINE
  8
1
 62
7
 10
50.7
 20
-5.7590000000001
 30
0
 11
50.7
 21
-28.00900000000011
 31
0
  0
LINE
  8
1
 62
7
 10
66.50000000000001
 20
10.541
 30
0
 11
66.50000000000001
 21
-28.00900000000011
 31
0
  0
LINE
  8
1
 62
2
 10
-41.175
 20
2.515999999999906
 30
0
 11
66.50000000000001
 21
2.515999999999906
 31
0
  0
LINE
  8
1
 62
2
 10
11.075
 20
10.541
 30
0
 11
11.075
 21
-28.00900000000011
 31
0
  0
LINE
  8
1
 62
7
 10
117.2354441589785
 20
-28.00900000000011
 30
0
 11
117.2354441589785
 21
-5.6340000000001
 31
0
  0
LINE
  8
1
 62
7
 10
143.325
 20
-15.90900000000009
 30
0
 11
66.75000000000001
 21
-15.90900000000009
 31
0
  0
LINE
  8
1
 62
2
 10
-41.425
 20
258.741
 30
0
 11
-46.425
 21
258.741
 31
0
  0
LINE
  8
1
 62
2
 10
-46.425
 20
233.741
 30
0
 11
-46.425
 21
258.741
 31
0
  0
LINE
  8
1
 62
2
 10
-46.425
 20
233.741
 30
0
 11
-41.425
 21
233.741
 31
0
  0
LINE
  8
1
 62
2
 10
-46.425
 20
238.741
 30
0
 11
-41.425
 21
238.741
 31
0
  0
LINE
  8
1
 62
2
 10
-46.425
 20
243.741
 30
0
 11
-41.425
 21
243.741
 31
0
  0
LINE
  8
1
 62
2
 10
-46.425
 20
248.741
 30
0
 11
-41.425
 21
248.741
 31
0
  0
LINE
  8
1
 62
2
 10
-41.425
 20
253.741
 30
0
 11
-46.425
 21
253.741
 31
0
  0
LINE
  8
1
 62
2
 10
-15.175
 20
10.791
 30
0
 11
-15.175
 21
-28.00900000000011
 31
0
  0
LINE
  8
1
 62
2
 10
24.2
 20
-5.634
 30
0
 11
-41.175
 21
-5.634
 31
0
  0
LINE
  8
1
 62
4
 10
34.075
 20
10.541
 30
0
 11
34.075
 21
-5.5090000000001
 31
0
  0
LINE
  8
1
 62
2
 10
46.825
 20
10.541
 30
0
 11
46.825
 21
-5.5090000000001
 31
0
  0
LINE
  8
1
 62
7
 10
24.45
 20
-5.5090000000001
 30
0
 11
66.50000000000001
 21
-5.5090000000001
 31
0
  0
LINE
  8
1
 62
7
 10
24.45
 20
-5.7590000000001
 30
0
 11
66.50000000000001
 21
-5.7590000000001
 31
0
  0
LINE
  8
1
 62
7
 10
105.0375
 20
10.541
 30
0
 11
105.0375
 21
2.515999999999906
 31
0
  0
LINE
  8
1
 62
2
 10
24.2
 20
-9.709000000000003
 30
0
 11
-41.175
 21
-9.709000000000003
 31
0
  0
LINE
  8
1
 62
2
 10
24.2
 20
-13.78400000000009
 30
0
 11
-41.175
 21
-13.78400000000001
 31
0
  0
LINE
  8
1
 62
2
 10
24.2
 20
-17.85900000000011
 30
0
 11
-41.175
 21
-17.85900000000011
 31
0
  0
LINE
  8
1
 62
4
 10
24.2
 20
-21.9340000000001
 30
0
 11
-41.175
 21
-21.9340000000001
 31
0
  0
LINE
  8
1
 62
7
 10
24.2
 20
10.7910000000001
 30
0
 11
24.2
 21
-28.00900000000011
 31
0
  0
LINE
  8
1
 62
7
 10
-41.175
 20
10.541
 30
0
 11
-41.175
 21
-28.00900000000011
 31
0
  0
TEXT
  8
1
 62
4
 10
-45.83418690036849
 20
249.251153043301
 30
0
 40
3.5
  1
02
 41
0.7000000000000001
 73
3
 11
-45.83418690036849
 21
252.751153043301
 31
0
  0
TEXT
  8
1
 62
4
 10
-45.83418690036849
 20
254.251153043301
 30
0
 40
3.5
  1
B
 41
0.7000000000000001
 73
3
 11
-45.83418690036849
 21
257.751153043301
 31
0
  0
TEXT
  8
SCHRIFTFELD
 62
2
 10
101.2875
 20
3.7409999999999
 30
0
 40
2.5
  1
 
 41
0.7
 72
2
 73
2
 11
103.0375
 21
4.9909999999999
 31
0
  0
TEXT
  8
SCHRIFTFELD
 62
4
 10
57.37500000000004
 20
-21.81400000000009
 30
0
 40
3.5
  1
 
 41
0.7000000000000001
 72
1
 73
2
 11
58.60000000000004
 21
-20.06400000000009
 31
0
  0
TEXT
  8
SCHRIFTFELD
 62
7
 10
79.745
 20
-13.2715000000001
 30
0
 40
5
  1
9040124
 41
0.7
 72
1
 73
2
 11
91.995
 21
-10.7715000000001
 31
0
  0
TEXT
  8
SCHRIFTFELD
 62
7
 10
53.35000000000001
 20
-15.41900000000011
 30
0
 40
5
  1
1:1
 41
0.7
 72
1
 73
2
 11
58.60000000000001
 21
-12.91900000000011
 31
0
  0
TEXT
  8
SCHRIFTFELD
 62
4
 10
82.9875
 20
-2.7590000000001
 30
0
 40
3.5
  1
HALTEWINKEL TEIL 2
 41
0.7000000000000001
 72
1
 73
2
 11
105.0375
 21
-1.0090000000001
 31
0
  0
TEXT
  8
SCHRIFTFELD
 62
4
 10
133.975
 20
3.2409999999999
 30
0
 40
3.5
  1
PLS
 41
0.7000000000000001
 72
2
 73
2
 11
141.325
 21
4.9909999999999
 31
0
  0
TEXT
  8
SCHRIFTFELD
 62
2
 10
34.2
 20
3.3034999999999
 30
0
 40
2.5
  1
1994-01-18
 41
0.5
 72
1
 73
2
 11
40.45
 21
4.5534999999999
 31
0
  0
TEXT
  8
SCHRIFTFELD
 62
2
 10
51.425
 20
3.3034999999999
 30
0
 40
2.5
  1
roth_s
 41
0.7
 72
1
 73
2
 11
56.675
 21
4.5534999999999
 31
0
  0
TEXT
  8
SCHRIFTFELD
 62
2
 10
-39.925
 20
-21.1465000000001
 30
0
 40
2.5
  1
1
 41
0.7
 72
1
 73
2
 11
-39.05
 21
-19.8965000000001
 31
0
  0
TEXT
  8
SCHRIFTFELD
 62
2
 10
-34.925
 20
-21.1465000000001
 30
0
 40
2.5
  1
D444
 41
0.7
 72
1
 73
2
 11
-31.425
 21
-19.8965000000001
 31
0
  0
TEXT
  8
SCHRIFTFELD
 62
2
 10
-26.8
 20
-21.1465000000001
 30
0
 40
2.5
  1
1994-01-18
 41
0.5
 72
1
 73
2
 11
-20.55
 21
-19.8965000000001
 31
0
  0
TEXT
  8
SCHRIFTFELD
 62
2
 10
-13.8625
 20
-21.1465000000001
 30
0
 40
2.5
  1
roth_s
 41
0.7
 72
1
 73
2
 11
-8.612499999999997
 21
-19.8965000000001
 31
0
  0
TEXT
  8
SCHRIFTFELD
 62
2
 10
-39.925
 20
-17.07150000000011
 30
0
 40
2.5
  1
 
 41
0.7
 72
1
 73
2
 11
-39.05
 21
-15.82150000000011
 31
0
  0
TEXT
  8
SCHRIFTFELD
 62
2
 10
-32.3
 20
-17.07150000000011
 30
0
 40
2.5
  1
 
 41
0.7
 72
1
 73
2
 11
-31.425
 21
-15.82150000000011
 31
0
  0
TEXT
  8
SCHRIFTFELD
 62
2
 10
-21.175
 20
-17.07150000000011
 30
0
 40
2.5
  1
 
 41
0.5
 72
1
 73
2
 11
-20.55
 21
-15.82150000000011
 31
0
  0
TEXT
  8
SCHRIFTFELD
 62
2
 10
-9.487499999999997
 20
-17.07150000000011
 30
0
 40
2.5
  1
 
 41
0.7
 72
1
 73
2
 11
-8.612499999999997
 21
-15.82150000000011
 31
0
  0
TEXT
  8
SCHRIFTFELD
 62
2
 10
-39.925
 20
-12.9965000000001
 30
0
 40
2.5
  1
 
 41
0.7
 72
1
 73
2
 11
-39.05
 21
-11.7465000000001
 31
0
  0
TEXT
  8
SCHRIFTFELD
 62
2
 10
-32.3
 20
-12.9965000000001
 30
0
 40
2.5
  1
 
 41
0.7
 72
1
 73
2
 11
-31.425
 21
-11.7465000000001
 31
0
  0
TEXT
  8
SCHRIFTFELD
 62
2
 10
-21.175
 20
-12.9965000000001
 30
0
 40
2.5
  1
 
 41
0.5
 72
1
 73
2
 11
-20.55
 21
-11.7465000000001
 31
0
  0
TEXT
  8
SCHRIFTFELD
 62
2
 10
-9.487499999999997
 20
-12.9965000000001
 30
0
 40
2.5
  1
 
 41
0.7
 72
1
 73
2
 11
-8.612499999999997
 21
-11.7465000000001
 31
0
  0
TEXT
  8
SCHRIFTFELD
 62
2
 10
-39.925
 20
-8.921500000000094
 30
0
 40
2.5
  1
 
 41
0.7
 72
1
 73
2
 11
-39.05
 21
-7.671500000000094
 31
0
  0
TEXT
  8
SCHRIFTFELD
 62
2
 10
-32.3
 20
-8.921500000000094
 30
0
 40
2.5
  1
 
 41
0.7
 72
1
 73
2
 11
-31.425
 21
-7.671500000000094
 31
0
  0
TEXT
  8
SCHRIFTFELD
 62
2
 10
-21.175
 20
-8.921500000000094
 30
0
 40
2.5
  1
 
 41
0.5
 72
1
 73
2
 11
-20.55
 21
-7.671500000000094
 31
0
  0
TEXT
  8
SCHRIFTFELD
 62
2
 10
-9.487499999999997
 20
-8.921500000000094
 30
0
 40
2.5
  1
 
 41
0.7
 72
1
 73
2
 11
-8.612499999999997
 21
-7.671500000000094
 31
0
  0
TEXT
  8
SCHRIFTFELD
 62
2
 10
-39.925
 20
-4.846500000000106
 30
0
 40
2.5
  1
 
 41
0.7
 72
1
 73
2
 11
-39.05
 21
-3.596500000000106
 31
0
  0
TEXT
  8
SCHRIFTFELD
 62
2
 10
-32.3
 20
-4.846500000000106
 30
0
 40
2.5
  1
 
 41
0.7
 72
1
 73
2
 11
-31.425
 21
-3.596500000000106
 31
0
  0
TEXT
  8
SCHRIFTFELD
 62
2
 10
-21.175
 20
-4.846500000000106
 30
0
 40
2.5
  1
 
 41
0.5
 72
1
 73
2
 11
-20.55
 21
-3.596500000000106
 31
0
  0
TEXT
  8
SCHRIFTFELD
 62
2
 10
-9.487499999999997
 20
-4.846500000000106
 30
0
 40
2.5
  1
 
 41
0.7
 72
1
 73
2
 11
-8.612499999999997
 21
-3.596500000000106
 31
0
  0
TEXT
  8
SCHRIFTFELD
 62
2
 10
-39.925
 20
-0.7715000000001027
 30
0
 40
2.5
  1
 
 41
0.7
 72
1
 73
2
 11
-39.05
 21
0.4784999999998973
 31
0
  0
TEXT
  8
SCHRIFTFELD
 62
2
 10
-32.3
 20
-0.7715000000001027
 30
0
 40
2.5
  1
 
 41
0.7
 72
1
 73
2
 11
-31.425
 21
0.4784999999998973
 31
0
  0
TEXT
  8
SCHRIFTFELD
 62
2
 10
-21.175
 20
-0.7715000000001027
 30
0
 40
2.5
  1
 
 41
0.5
 72
1
 73
2
 11
-20.55
 21
0.4784999999998973
 31
0
  0
TEXT
  8
SCHRIFTFELD
 62
2
 10
-9.487499999999997
 20
-0.7715000000001027
 30
0
 40
2.5
  1
 
 41
0.7
 72
1
 73
2
 11
-8.612499999999997
 21
0.4784999999998973
 31
0
  0
TEXT
  8
SCHRIFTFELD
 62
2
 10
-39.925
 20
3.3034999999999
 30
0
 40
2.5
  1
 
 41
0.7
 72
1
 73
2
 11
-39.05
 21
4.5534999999999
 31
0
  0
TEXT
  8
SCHRIFTFELD
 62
2
 10
-32.3
 20
3.3034999999999
 30
0
 40
2.5
  1
 
 41
0.7
 72
1
 73
2
 11
-31.425
 21
4.5534999999999
 31
0
  0
TEXT
  8
SCHRIFTFELD
 62
2
 10
-21.175
 20
3.3034999999999
 30
0
 40
2.5
  1
 
 41
0.5
 72
1
 73
2
 11
-20.55
 21
4.5534999999999
 31
0
  0
TEXT
  8
SCHRIFTFELD
 62
2
 10
-9.487499999999997
 20
3.3034999999999
 30
0
 40
2.5
  1
 
 41
0.7
 72
1
 73
2
 11
-8.612499999999997
 21
4.5534999999999
 31
0
  0
TEXT
  8
SCHRIFTFELD
 62
2
 10
-39.925
 20
7.378499999999903
 30
0
 40
2.5
  1
 
 41
0.7
 72
1
 73
2
 11
-39.05
 21
8.628499999999903
 31
0
  0
TEXT
  8
SCHRIFTFELD
 62
2
 10
-32.3
 20
7.378499999999903
 30
0
 40
2.5
  1
 
 41
0.7
 72
1
 73
2
 11
-31.425
 21
8.628499999999903
 31
0
  0
TEXT
  8
SCHRIFTFELD
 62
2
 10
-21.175
 20
7.378499999999903
 30
0
 40
2.5
  1
 
 41
0.5
 72
1
 73
2
 11
-20.55
 21
8.628499999999903
 31
0
  0
TEXT
  8
SCHRIFTFELD
 62
2
 10
-9.487499999999997
 20
7.378499999999903
 30
0
 40
2.5
  1
 
 41
0.7
 72
1
 73
2
 11
-8.612499999999997
 21
8.628499999999903
 31
0
  0
TEXT
  8
SCHRIFTFELD
 62
2
 10
3.88750000000001
 20
7.378499999999903
 30
0
 40
2.5
  1
 
 41
0.5
 72
1
 73
2
 11
4.51250000000001
 21
8.628499999999903
 31
0
  0
TEXT
  8
SCHRIFTFELD
 62
2
 10
3.88750000000001
 20
3.3034999999999
 30
0
 40
2.5
  1
 
 41
0.5
 72
1
 73
2
 11
4.51250000000001
 21
4.5534999999999
 31
0
  0
TEXT
  8
SCHRIFTFELD
 62
2
 10
3.88750000000001
 20
-0.7715000000001027
 30
0
 40
2.5
  1
 
 41
0.5
 72
1
 73
2
 11
4.51250000000001
 21
0.4784999999998973
 31
0
  0
TEXT
  8
SCHRIFTFELD
 62
2
 10
3.88750000000001
 20
-4.846500000000106
 30
0
 40
2.5
  1
 
 41
0.5
 72
1
 73
2
 11
4.51250000000001
 21
-3.596500000000106
 31
0
  0
TEXT
  8
SCHRIFTFELD
 62
2
 10
3.88750000000001
 20
-8.921500000000094
 30
0
 40
2.5
  1
 
 41
0.5
 72
1
 73
2
 11
4.51250000000001
 21
-7.671500000000094
 31
0
  0
TEXT
  8
SCHRIFTFELD
 62
2
 10
3.88750000000001
 20
-12.9965000000001
 30
0
 40
2.5
  1
 
 41
0.5
 72
1
 73
2
 11
4.51250000000001
 21
-11.7465000000001
 31
0
  0
TEXT
  8
SCHRIFTFELD
 62
2
 10
3.88750000000001
 20
-17.07150000000011
 30
0
 40
2.5
  1
 
 41
0.5
 72
1
 73
2
 11
4.51250000000001
 21
-15.82150000000011
 31
0
  0
TEXT
  8
SCHRIFTFELD
 62
2
 10
-1.73749999999999
 20
-21.1465000000001
 30
0
 40
2.5
  1
1994-01-18
 41
0.5
 72
1
 73
2
 11
4.51250000000001
 21
-19.8965000000001
 31
0
  0
TEXT
  8
SCHRIFTFELD
 62
2
 10
34.2
 20
-0.7715000000001027
 30
0
 40
2.5
  1
1994-01-18
 41
0.5
 72
1
 73
2
 11
40.45
 21
0.4784999999998973
 31
0
  0
TEXT
  8
SCHRIFTFELD
 62
2
 10
50.55
 20
-0.7715000000001027
 30
0
 40
2.5
  1
boeckel
 41
0.7
 72
1
 73
2
 11
56.675
 21
0.4784999999998973
 31
0
  0
TEXT
  8
SCHRIFTFELD
 62
2
 10
86.23544415897851
 20
-19.19650000000011
 30
0
 40
2.5
  1
 
 41
0.7
 73
2
 11
86.23544415897851
 21
-17.94650000000011
 31
0
  0
TEXT
  8
SCHRIFTFELD
 62
2
 10
86.23544415897851
 20
-23.2715000000001
 30
0
 40
2.5
  1
 
 41
0.7
 73
2
 11
86.23544415897851
 21
-22.0215000000001
 31
0
  0
TEXT
  8
SCHRIFTFELD
 62
2
 10
85.36044415897851
 20
-27.34650000000009
 30
0
 40
2.5
  1
 
 41
0.7
 72
1
 73
2
 11
86.23544415897851
 21
-26.09650000000009
 31
0
  0
TEXT
  8
1
 62
4
 10
118.4995035144391
 20
-15.13575792212701
 30
0
 40
3.5
  1
1
 41
0.7000000000000001
 72
2
 11
120.9495035144391
 21
-15.13575792212701
 31
0
  0
TEXT
  8
1
 62
4
 10
127.2967956195038
 20
-15.22646523206701
 30
0
 40
3.5
  1
1
 41
0.7000000000000001
  0
TEXT
  8
SCHRIFTFELD
 62
2
 10
39.825
 20
-4.846500000000106
 30
0
 40
2.5
  1
 
 41
0.5
 72
1
 73
2
 11
40.45
 21
-3.596500000000106
 31
0
  0
TEXT
  8
SCHRIFTFELD
 62
2
 10
55.8
 20
-4.846500000000106
 30
0
 40
2.5
  1
 
 41
0.7
 72
1
 73
2
 11
56.675
 21
-3.596500000000106
 31
0
  0
TEXT
  8
SCHRIFTFELD
 62
2
 10
11.51250000000001
 20
-21.1465000000001
 30
0
 40
2.5
  1
boeckel
 41
0.7
 72
1
 73
2
 11
17.63750000000001
 21
-19.8965000000001
 31
0
  0
TEXT
  8
SCHRIFTFELD
 62
2
 10
16.76250000000001
 20
7.378499999999903
 30
0
 40
2.5
  1
 
 41
0.7
 72
1
 73
2
 11
17.63750000000001
 21
8.628499999999903
 31
0
  0
TEXT
  8
SCHRIFTFELD
 62
2
 10
16.76250000000001
 20
3.3034999999999
 30
0
 40
2.5
  1
 
 41
0.7
 72
1
 73
2
 11
17.63750000000001
 21
4.5534999999999
 31
0
  0
TEXT
  8
SCHRIFTFELD
 62
2
 10
16.76250000000001
 20
-0.7715000000001027
 30
0
 40
2.5
  1
 
 41
0.7
 72
1
 73
2
 11
17.63750000000001
 21
0.4784999999998973
 31
0
  0
TEXT
  8
SCHRIFTFELD
 62
2
 10
16.76250000000001
 20
-4.846500000000106
 30
0
 40
2.5
  1
 
 41
0.7
 72
1
 73
2
 11
17.63750000000001
 21
-3.596500000000106
 31
0
  0
TEXT
  8
SCHRIFTFELD
 62
2
 10
16.76250000000001
 20
-8.921500000000094
 30
0
 40
2.5
  1
 
 41
0.7
 72
1
 73
2
 11
17.63750000000001
 21
-7.671500000000094
 31
0
  0
TEXT
  8
SCHRIFTFELD
 62
2
 10
16.76250000000001
 20
-12.9965000000001
 30
0
 40
2.5
  1
 
 41
0.7
 72
1
 73
2
 11
17.63750000000001
 21
-11.7465000000001
 31
0
  0
TEXT
  8
SCHRIFTFELD
 62
2
 10
16.76250000000001
 20
-17.07150000000011
 30
0
 40
2.5
  1
 
 41
0.7
 72
1
 73
2
 11
17.63750000000001
 21
-15.82150000000011
 31
0
  0
TEXT
  8
1
 62
2
 10
2.41250000000001
 20
-25.8715000000001
 30
0
 40
2
  1
Tag
 41
0.7
 72
1
 73
2
 11
4.51250000000001
 21
-24.8715000000001
 31
0
  0
TEXT
  8
1
 62
2
 10
14.1375
 20
-25.8715000000001
 30
0
 40
2
  1
Gepr.
 41
0.7
 72
1
 73
2
 11
17.6375
 21
-24.8715000000001
 31
0
  0
TEXT
  8
1
 62
2
 10
25.72500000000001
 20
-4.596500000000106
 30
0
 40
2
  1
Freigabe
 41
0.6
 73
2
 11
25.72500000000001
 21
-3.596500000000106
 31
0
  0
TEXT
  8
1
 62
4
 10
123.6404870426315
 20
-15.1840000000001
 30
0
 40
3.5
  1
v.   Blatt
 41
0.7000000000000001
  0
TEXT
  8
1
 62
2
 10
118.2354441589785
 20
-19.16525000000011
 30
0
 40
2
  1
Verteildatum:
 41
0.7
 73
2
 11
118.2354441589785
 21
-18.16525000000011
 31
0
  0
TEXT
  8
1
 62
2
 10
118.2354441589785
 20
-9.690250000000006
 30
0
 40
2
  1
Blatt-Nr.
 41
0.7
 73
2
 11
118.2354441589785
 21
-8.690250000000006
 31
0
  0
TEXT
  8
1
 62
2
 10
106.0375
 20
7.534750000000003
 30
0
 40
2
  1
Norm-Typ/DIN
 41
0.7
 73
2
 11
106.0375
 21
8.534750000000003
 31
0
  0
TEXT
  8
1
 62
2
 10
-54.4386027247957
 20
-27.41976294277929
 30
0
 40
1.8
  1
Vervielfaeltigung dieser Unterlage sowie Verwertung und Mitteilung ihres
 50
90
 41
0.7
  0
TEXT
  8
1
 62
2
 10
-51.8664027247957
 20
-27.41976294277929
 30
0
 40
1.8
  1
Inhaltes unzulaessig, soweit nicht ausdruecklich zugestanden. Zuwiderhand-
 50
90
 41
0.7
  0
TEXT
  8
1
 62
2
 10
-49.2942027247957
 20
-27.41976294277929
 30
0
 40
1.8
  1
lungen sind strafbar und verpflichten zu Schadenersatz (LitUrhG, UWG, BGB).
 50
90
 41
0.7
  0
TEXT
  8
1
 62
2
 10
-46.72200272479569
 20
-27.41976294277929
 30
0
 40
1.8
  1
Alle Rechte fuer den Fall der Patenterteilung oder GM-Eintragung vorbehalten.
 50
90
 41
0.7
  0
TEXT
  8
1
 62
2
 10
67.75000000000001
 20
-23.0215000000001
 30
0
 40
2
  1
Ersatz fÏr:
 41
0.7
 73
2
 11
67.75000000000001
 21
-22.0215000000001
 31
0
  0
TEXT
  8
1
 62
2
 10
-37.025
 20
-25.94814703981079
 30
0
 40
2
  1
Ønderung
 41
0.7
 72
1
 73
2
 11
-31.425
 21
-24.94814703981079
 31
0
  0
TEXT
  8
1
 62
2
 10
25.72500000000001
 20
-0.5215000000001027
 30
0
 40
2
  1
Gepr.
 41
0.7
 73
2
 11
25.72500000000001
 21
0.4784999999998973
 31
0
  0
TEXT
  8
1
 62
2
 10
25.72500000000001
 20
3.5535
 30
0
 40
2
  1
Gez.
 41
0.7
 73
2
 11
25.72500000000001
 21
4.5535
 31
0
  0
TEXT
  8
1
 62
2
 10
37.35
 20
7.784750000000003
 30
0
 40
2
  1
Tag
 41
0.7
 72
1
 73
2
 11
39.45
 21
8.784750000000003
 31
0
  0
TEXT
  8
1
 62
2
 10
53.08750000000001
 20
7.784750000000003
 30
0
 40
2
  1
Name
 41
0.7
 72
1
 73
2
 11
55.8875
 21
8.784750000000003
 31
0
  0
TEXT
  8
1
 62
2
 10
-41.84999999999999
 20
-25.8715000000001
 30
0
 40
2
  1
Ind.
 41
0.7
 72
1
 73
2
 11
-39.05
 21
-24.8715000000001
 31
0
  0
TEXT
  8
1
 62
2
 10
-22.65
 20
-25.8715000000001
 30
0
 40
2
  1
Tag
 41
0.7
 72
1
 73
2
 11
-20.55
 21
-24.8715000000001
 31
0
  0
TEXT
  8
1
 62
2
 10
-11.4125
 20
-25.8715000000001
 30
0
 40
2
  1
Name
 41
0.7
 72
1
 73
2
 11
-8.612499999999997
 21
-24.8715000000001
 31
0
  0
TEXT
  8
1
 62
2
 10
54.123070687122
 20
-8.689161615111701
 30
0
 40
2
  1
MaBstab:
 41
0.7
  0
TEXT
  8
1
 62
2
 10
67.75000000000001
 20
7.534750000000003
 30
0
 40
2
  1
Werkstoff
 41
0.7
 73
2
 11
67.75000000000001
 21
8.534750000000003
 31
0
  0
TEXT
  8
1
 62
2
 10
67.75000000000001
 20
-27.09650000000009
 30
0
 40
2
  1
Ersetzt durch:
 41
0.7
 73
2
 11
67.75000000000001
 21
-26.09650000000009
 31
0
  0
TEXT
  8
1
 62
2
 10
67.75000000000001
 20
-18.94650000000011
 30
0
 40
2
  1
Ursprung:
 41
0.7
 73
2
 11
67.75000000000001
 21
-17.94650000000011
 31
0
  0
INSERT
  8
0
  2
LOGO__SICK_AG
 10
25.00497088700821
 20
-14.55815921380709
 30
0
  0
INSERT
  8
0
  2
_ANSCHRIFT_WALDKIRCH
 10
50.45
 20
-28.00900000000011
 30
0
  0
ENDBLK
  8
0
  0
BLOCK
  8
0
  2
4027733_BOLZEN__1
 70
0
 10
298.4352369829438
 20
164.5193128033592
 30
0
  0
LINE
  8
1
 62
4
 10
61.26215254523458
 20
218.7705957460034
 30
0
 11
71.26215254523458
 21
218.7705957460034
 31
0
  0
LINE
  8
1
 62
4
 10
61.5621525452346
 20
218.4705957460034
 30
0
 11
61.26215254523458
 21
218.7705957460034
 31
0
  0
LINE
  8
1
 62
4
 10
61.5621525452346
 20
218.4705957460034
 30
0
 11
70.96215254523463
 21
218.4705957460034
 31
0
  0
LINE
  8
1
 62
4
 10
71.26215254523458
 20
218.7705957460034
 30
0
 11
70.96215254523463
 21
218.4705957460034
 31
0
  0
LINE
  8
1
 62
4
 10
61.26215254523458
 20
218.7705957460034
 30
0
 11
61.2621525452346
 21
221.9705957460034
 31
0
  0
LINE
  8
1
 62
4
 10
71.26215254523458
 20
218.7705957460034
 30
0
 11
71.2621525452346
 21
221.9705957460034
 31
0
  0
LINE
  8
1
 62
4
 10
63.2621525452346
 20
227.4705957460034
 30
0
 11
69.2621525452346
 21
227.4705957460034
 31
0
  0
LINE
  8
1
 62
4
 10
69.2621525452346
 20
227.4705957460034
 30
0
 11
68.7621525452346
 21
227.9705957460034
 31
0
  0
LINE
  8
1
 62
4
 10
63.2621525452346
 20
227.4705957460034
 30
0
 11
63.7621525452346
 21
227.9705957460034
 31
0
  0
LINE
  8
1
 62
2
  6
DASHDOT
 10
66.2621525452346
 20
228.9205957460034
 30
0
 11
66.26215254523458
 21
217.5205957460034
 31
0
  0
LINE
  8
1
 62
4
 10
61.2621525452346
 20
221.9705957460034
 30
0
 11
63.2621525452346
 21
221.9705957460034
 31
0
  0
LINE
  8
1
 62
4
 10
63.2621525452346
 20
221.9705957460034
 30
0
 11
63.2621525452346
 21
227.4705957460034
 31
0
  0
LINE
  8
1
 62
4
 10
63.2621525452346
 20
221.9705957460034
 30
0
 11
69.2621525452346
 21
221.9705957460034
 31
0
  0
LINE
  8
1
 62
4
 10
63.7621525452346
 20
227.9705957460034
 30
0
 11
68.7621525452346
 21
227.9705957460034
 31
0
  0
LINE
  8
1
 62
4
 10
69.2621525452346
 20
221.9705957460034
 30
0
 11
69.2621525452346
 21
227.4705957460034
 31
0
  0
LINE
  8
1
 62
4
 10
69.2621525452346
 20
221.9705957460034
 30
0
 11
71.2621525452346
 21
221.9705957460034
 31
0
  0
ENDBLK
  8
0
  0
BLOCK
  8
1
  2
*X3
 70
1
 10
0
 20
0
 30
0
  0
LINE
  8
1
 62
2
 10
60.64400620743123
 20
226.1069930050833
 30
0
 11
61.50760894835132
 21
226.9705957460034
 31
0
  0
LINE
  8
1
 62
2
 10
60.77450551062969
 20
224.8232787459087
 30
0
 11
62.92182251072441
 21
226.9705957460034
 31
0
  0
LINE
  8
1
 62
2
 10
60.71247062492209
 20
223.347030297828
 30
0
 11
63.26215254523464
 21
225.8967122181406
 31
0
  0
LINE
  8
1
 62
2
 10
60.75024963547061
 20
221.9705957460034
 30
0
 11
63.26215254523464
 21
224.4824986557675
 31
0
  0
LINE
  8
1
 62
2
 10
62.1644631978437
 20
221.9705957460034
 30
0
 11
63.26215254523464
 21
223.0682850933944
 31
0
  0
ENDBLK
  8
0
  0
BLOCK
  8
1
  2
*X4
 70
1
 10
0
 20
0
 30
0
  0
LINE
  8
1
 62
2
 10
69.26215254523458
 20
226.2398579686482
 30
0
 11
69.99289032258987
 21
226.9705957460034
 31
0
  0
LINE
  8
1
 62
2
 10
69.26215254523458
 20
224.825644406275
 30
0
 11
70.80936679346367
 21
226.3728586545041
 31
0
  0
LINE
  8
1
 62
2
 10
69.26215254523458
 20
223.4114308439019
 30
0
 11
71.14257481071103
 21
225.2918531093783
 31
0
  0
LINE
  8
1
 62
2
 10
69.26215254523458
 20
221.9972172815288
 30
0
 11
72.28444078640035
 21
225.0195055226946
 31
0
  0
LINE
  8
1
 62
2
 10
70.64974457208226
 20
221.9705957460034
 30
0
 11
73.17324141487555
 21
224.4940925887967
 31
0
  0
LINE
  8
1
 62
2
 10
72.06395813445535
 20
221.9705957460034
 30
0
 11
72.86901877027672
 21
222.7756563818248
 31
0
  0
ENDBLK
  8
0
  0
BLOCK
  8
0
  2
9040122__4027732__HALTERUNG_TEI
 70
0
 10
27.37469538099583
 20
99.40689057225208
 30
0
  0
INSERT
  8
1
  2
*X3
 10
0
 20
0
 30
0
  0
INSERT
  8
1
  2
*X4
 10
0
 20
0
 30
0
  0
LINE
  8
1
 62
2
  6
DASHDOT
 10
47.07016035087437
 20
44.60583567262265
 30
0
 11
34.74629147622647
 21
44.60583567262265
 31
0
  0
LINE
  8
1
 62
2
  6
DASHDOT
 10
47.07016035087437
 20
47.31494411648784
 30
0
 11
34.68276637893447
 21
47.31494411648784
 31
0
  0
LINE
  8
1
 62
2
  6
DASHDOT
 10
34.74629147622647
 20
240.2353558193838
 30
0
 11
47.07016035087437
 21
240.2353558193838
 31
0
  0
LINE
  8
1
 62
2
  6
DASHDOT
 10
34.68276637893447
 20
237.5262473755187
 30
0
 11
47.07016035087437
 21
237.5262473755187
 31
0
  0
LINE
  8
1
 62
2
  6
DASHDOT
 10
71.73447483844518
 20
218.5710117639898
 30
0
 11
71.73447483844519
 21
229.8236029415821
 31
0
  0
LINE
  8
1
 62
2
  6
DASHDOT
 10
71.73447483844518
 20
55.01758855042437
 30
0
 11
71.73447483844518
 21
66.27017972801667
 31
0
  0
LINE
  8
1
 62
2
  6
DASHDOT
 10
35.26137471364069
 20
142.4205957460032
 30
0
 11
47.69844917308478
 21
142.4205957460032
 31
0
  0
LINE
  8
1
 62
2
 10
56.64687401790485
 20
55.19740312484638
 30
0
 11
46.66205840225786
 21
54.84872568031472
 31
0
  0
LINE
  8
1
 62
2
 10
45.63418719645341
 20
38.33393344470234
 30
0
 11
45.63418719645341
 21
53.96285223957533
 31
0
  0
LINE
  8
1
 62
2
 10
46.66205840225786
 20
229.9924658116918
 30
0
 11
56.64687401790486
 21
229.6437883671601
 31
0
  0
LINE
  8
1
 62
2
 10
45.63418719645341
 20
230.8783392524312
 30
0
 11
45.63418719645341
 21
246.5072580473042
 31
0
  0
LINE
  8
1
 62
4
 10
45.09925714527751
 20
229.3943125031905
 30
0
 11
45.31968345926134
 21
229.6095577331149
 31
0
  0
LINE
  8
1
 62
4
 10
45.31968345926134
 20
229.6095577331149
 30
0
 11
45.55122471333186
 21
229.8360710913554
 31
0
  0
LINE
  8
1
 62
4
 10
45.55122471333186
 20
229.8360710913554
 30
0
 11
45.79238529460324
 21
230.0727311235815
 31
0
  0
LINE
  8
1
 62
4
 10
45.79238529460324
 20
230.0727311235815
 30
0
 11
46.04066088732165
 21
230.3176934760336
 31
0
  0
LINE
  8
1
 62
4
 10
46.04066088732165
 20
230.3176934760336
 30
0
 11
46.32526841889026
 21
230.6016543400151
 31
0
  0
LINE
  8
1
 62
4
 10
46.32526841889026
 20
230.6016543400151
 30
0
 11
46.61088277165089
 21
230.8948202487913
 31
0
  0
LINE
  8
1
 62
4
 10
46.61088277165089
 20
230.8948202487913
 30
0
 11
46.77574486108756
 21
231.0747652559605
 31
0
  0
LINE
  8
1
 62
4
 10
46.77574486108756
 20
231.0747652559605
 30
0
 11
46.85460578677439
 21
231.1687158794721
 31
0
  0
LINE
  8
1
 62
4
 10
46.85460578677439
 20
231.1687158794721
 30
0
 11
46.90251869368529
 21
231.2317083092355
 31
0
  0
LINE
  8
1
 62
4
 10
46.90251869368529
 20
231.2317083092355
 30
0
 11
46.94614192271411
 21
231.2976369550232
 31
0
  0
LINE
  8
1
 62
4
 10
46.94614192271411
 20
231.2976369550232
 30
0
 11
46.97400425936132
 21
231.3497669783153
 31
0
  0
LINE
  8
1
 62
4
 10
46.97400425936132
 20
231.3497669783153
 30
0
 11
46.99017968722774
 21
231.3896718281964
 31
0
  0
LINE
  8
1
 62
4
 10
46.99017968722774
 20
231.3896718281964
 30
0
 11
47.00131658116658
 21
231.4310626215794
 31
0
  0
LINE
  8
1
 62
4
 10
47.00131658116658
 20
231.4310626215794
 30
0
 11
47.00497926361064
 21
231.4560932517001
 31
0
  0
LINE
  8
1
 62
4
 10
47.00497926361064
 20
231.4560932517001
 30
0
 11
47.00622184767212
 21
231.4813616757997
 31
0
  0
LINE
  8
1
 62
4
 10
45.09885935369564
 20
229.3939243025366
 30
0
 11
45.09900851919454
 21
229.3940698715083
 31
0
  0
LINE
  8
1
 62
4
 10
45.09900851919454
 20
229.3940698715083
 30
0
 11
45.09913282959303
 21
229.3941911847359
 31
0
  0
LINE
  8
1
 62
4
 10
45.09913282959303
 20
229.3941911847359
 30
0
 11
45.09925714527751
 21
229.3943125031905
 31
0
  0
LINE
  8
1
 62
4
 10
47.26215254523464
 20
53.36876711310672
 30
0
 11
46.8619236488731
 21
53.75526366567648
 31
0
  0
LINE
  8
1
 62
4
 10
46.8619236488731
 20
53.75526366567648
 30
0
 11
46.46885005912301
 21
54.13485041897126
 31
0
  0
LINE
  8
1
 62
4
 10
46.46885005912301
 20
54.13485041897126
 30
0
 11
46.08995915976681
 21
54.50074110735613
 31
0
  0
LINE
  8
1
 62
4
 10
46.08995915976681
 20
54.50074110735613
 30
0
 11
45.73202477593759
 21
54.84639432393748
 31
0
  0
LINE
  8
1
 62
4
 10
45.73202477593759
 20
54.84639432393748
 30
0
 11
45.40144607142983
 21
55.16563046807089
 31
0
  0
LINE
  8
1
 62
4
 10
45.40144607142983
 20
55.16563046807089
 30
0
 11
45.10413314421865
 21
55.45274222448376
 31
0
  0
LINE
  8
1
 62
4
 10
44.26215254523458
 20
221.9705957460034
 30
0
 11
44.26215254523458
 21
231.4724243789
 31
0
  0
LINE
  8
1
 62
4
 10
59.26215254523457
 20
221.9705957460034
 30
0
 11
59.26215254523457
 21
226.9705957460034
 31
0
  0
LINE
  8
1
 62
4
 10
44.26215254523458
 20
53.36876711310662
 30
0
 11
44.26215254523458
 21
62.87059574600338
 31
0
  0
LINE
  8
1
 62
4
 10
59.26215254523456
 20
62.87059574600331
 30
0
 11
59.26215254523456
 21
57.87059574600321
 31
0
  0
LINE
  8
1
 62
4
 10
36.26215254523458
 20
42.04629624657969
 30
0
 11
44.26215254523458
 21
42.04629624657969
 31
0
  0
LINE
  8
1
 62
4
 10
44.26215254523458
 20
242.7948952454259
 30
0
 11
36.26215254523458
 21
242.7948952454259
 31
0
  0
LINE
  8
1
 62
4
 10
44.26215254523458
 20
53.36876711310662
 30
0
 11
44.26215254523458
 21
42.04629624657969
 31
0
  0
LINE
  8
1
 62
4
 10
36.26215254523458
 20
42.04629624657969
 30
0
 11
36.26215254523458
 21
62.8705957460033
 31
0
  0
LINE
  8
1
 62
4
 10
38.26215254523458
 20
65.69902287074947
 30
0
 11
38.26215254523458
 21
66.17059574600339
 31
0
  0
LINE
  8
1
 62
4
 10
38.26215254523458
 20
66.17059574600339
 30
0
 11
44.26215254523458
 21
66.17059574600339
 31
0
  0
LINE
  8
1
 62
4
 10
44.26215254523458
 20
66.17059574600339
 30
0
 11
44.26215254523458
 21
62.87059574600338
 31
0
  0
LINE
  8
1
 62
4
 10
44.26215254523458
 20
221.9705957460034
 30
0
 11
44.26215254523458
 21
218.6705957460034
 31
0
  0
LINE
  8
1
 62
4
 10
44.26215254523458
 20
218.6705957460034
 30
0
 11
38.26215254523458
 21
218.6705957460034
 31
0
  0
LINE
  8
1
 62
4
 10
38.26215254523458
 20
218.6705957460034
 30
0
 11
38.26215254523458
 21
219.1421686212571
 31
0
  0
LINE
  8
1
 62
4
 10
36.26215254523458
 20
221.9705957460033
 30
0
 11
36.26215254523458
 21
242.7948952454259
 31
0
  0
LINE
  8
1
 62
4
 10
44.26215254523458
 20
242.7948952454259
 30
0
 11
44.26215254523458
 21
231.4724243789
 31
0
  0
LINE
  8
1
 62
4
 10
44.26215254523458
 20
250.4205957460034
 30
0
 11
44.30291841171416
 21
250.3600398951897
 31
0
  0
LINE
  8
1
 62
4
 10
44.30291841171416
 20
250.3600398951897
 30
0
 11
44.42410810723965
 21
250.1800180839011
 31
0
  0
LINE
  8
1
 62
4
 10
44.42410810723965
 20
250.1800180839011
 30
0
 11
44.62242802984676
 21
249.8854228088859
 31
0
  0
LINE
  8
1
 62
4
 10
44.62242802984676
 20
249.8854228088859
 30
0
 11
44.89248839054528
 21
249.4842603579086
 31
0
  0
LINE
  8
1
 62
4
 10
44.89248839054528
 20
249.4842603579086
 30
0
 11
45.22694969293147
 21
248.9874332209113
 31
0
  0
LINE
  8
1
 62
4
 10
45.22694969293147
 20
248.9874332209113
 30
0
 11
45.6167222004749
 21
248.4084437903809
 31
0
  0
LINE
  8
1
 62
4
 10
45.6167222004749
 20
248.4084437903809
 30
0
 11
46.05121297050891
 21
247.7630274035293
 31
0
  0
LINE
  8
1
 62
4
 10
46.05121297050891
 20
247.7630274035293
 30
0
 11
46.51861374122166
 21
247.0687246991902
 31
0
  0
LINE
  8
1
 62
4
 10
46.51861374122166
 20
247.0687246991902
 30
0
 11
57.52707360485553
 21
230.7161554848196
 31
0
  0
LINE
  8
1
 62
4
 10
59.26215254523457
 20
228.1387741965729
 30
0
 11
59.26215254523457
 21
228.0904194045044
 31
0
  0
LINE
  8
1
 62
4
 10
59.26215254523457
 20
228.0904194045044
 30
0
 11
59.26215254523457
 21
228.0612805173929
 31
0
  0
LINE
  8
1
 62
4
 10
59.26215254523457
 20
228.0612805173929
 30
0
 11
59.26215254523457
 21
228.0515465121025
 31
0
  0
LINE
  8
1
 62
4
 10
57.52707360485553
 20
230.7161554848196
 30
0
 11
57.79648650928669
 21
230.315954800843
 31
0
  0
LINE
  8
1
 62
4
 10
57.79648650928669
 20
230.315954800843
 30
0
 11
58.05630917926798
 21
229.929999976375
 31
0
  0
LINE
  8
1
 62
4
 10
58.05630917926798
 20
229.929999976375
 30
0
 11
58.30195833877805
 21
229.5650992606436
 31
0
  0
LINE
  8
1
 62
4
 10
58.30195833877805
 20
229.5650992606436
 30
0
 11
58.52910073274511
 21
229.2276895080647
 31
0
  0
LINE
  8
1
 62
4
 10
58.52910073274511
 20
229.2276895080647
 30
0
 11
58.73372956573525
 21
228.9237226320277
 31
0
  0
LINE
  8
1
 62
4
 10
58.73372956573525
 20
228.9237226320277
 30
0
 11
58.91223518188743
 21
228.6585606130494
 31
0
  0
LINE
  8
1
 62
4
 10
58.91223518188743
 20
228.6585606130494
 30
0
 11
59.06146873930017
 21
228.4368809133523
 31
0
  0
LINE
  8
1
 62
4
 10
59.06146873930017
 20
228.4368809133523
 30
0
 11
59.17879775565264
 21
228.2625939663565
 31
0
  0
LINE
  8
1
 62
4
 10
59.17879775565264
 20
228.2625939663565
 30
0
 11
59.26215254523457
 21
228.1387741965729
 31
0
  0
LINE
  8
1
 62
4
 10
46.79284915011391
 20
38.19454754271074
 30
0
 11
57.46999211516517
 21
54.11704998688612
 31
0
  0
LINE
  8
1
 62
4
 10
46.79284915011391
 20
38.19454754271074
 30
0
 11
46.33510156210974
 21
37.51192232052645
 31
0
  0
LINE
  8
1
 62
4
 10
46.33510156210974
 20
37.51192232052645
 30
0
 11
45.90018104601594
 21
36.86333842470407
 31
0
  0
LINE
  8
1
 62
4
 10
45.90018104601594
 20
36.86333842470407
 30
0
 11
45.4987967883572
 21
36.26476614328527
 31
0
  0
LINE
  8
1
 62
4
 10
45.4987967883572
 20
36.26476614328527
 30
0
 11
45.14083220167495
 21
35.73094431238607
 31
0
  0
LINE
  8
1
 62
4
 10
45.14083220167495
 20
35.73094431238607
 30
0
 11
44.83510156210974
 21
35.27501739713637
 31
0
  0
LINE
  8
1
 62
4
 10
44.83510156210974
 20
35.27501739713637
 30
0
 11
44.58913297266949
 21
34.90821183132419
 31
0
  0
LINE
  8
1
 62
4
 10
44.58913297266949
 20
34.90821183132419
 30
0
 11
44.40898299634912
 21
34.63955958533779
 31
0
  0
LINE
  8
1
 62
4
 10
44.40898299634912
 20
34.63955958533779
 30
0
 11
44.29908752344917
 21
34.475675769079
 31
0
  0
LINE
  8
1
 62
4
 10
44.29908752344917
 20
34.475675769079
 30
0
 11
44.26215254523458
 21
34.42059574600331
 31
0
  0
LINE
  8
1
 62
4
 10
59.26215254523454
 20
56.78964497990417
 30
0
 11
59.24451868348686
 21
56.76334813179634
 31
0
  0
LINE
  8
1
 62
4
 10
59.24451868348686
 20
56.76334813179634
 30
0
 11
59.19191881850738
 21
56.68490753383482
 31
0
  0
LINE
  8
1
 62
4
 10
59.19191881850738
 20
56.68490753383482
 30
0
 11
59.1052529485693
 21
56.5556653263986
 31
0
  0
LINE
  8
1
 62
4
 10
59.1052529485693
 20
56.5556653263986
 30
0
 11
58.98600395073562
 21
56.3778328794896
 31
0
  0
LINE
  8
1
 62
4
 10
58.98600395073562
 20
56.3778328794896
 30
0
 11
58.83621220842132
 21
56.1544529555789
 31
0
  0
LINE
  8
1
 62
4
 10
58.83621220842132
 20
56.1544529555789
 30
0
 11
58.65844069986753
 21
55.88934764709725
 31
0
  0
LINE
  8
1
 62
4
 10
58.65844069986753
 20
55.88934764709725
 30
0
 11
58.45573114487314
 21
55.58705297937384
 31
0
  0
LINE
  8
1
 62
4
 10
58.45573114487314
 20
55.58705297937384
 30
0
 11
58.23155196012586
 21
55.2527412979853
 31
0
  0
LINE
  8
1
 62
4
 10
58.23155196012586
 20
55.2527412979853
 30
0
 11
57.9897389136309
 21
54.89213276848894
 31
0
  0
LINE
  8
1
 62
4
 10
57.9897389136309
 20
54.89213276848894
 30
0
 11
57.73442949365703
 21
54.511397502804
 31
0
  0
LINE
  8
1
 62
4
 10
57.73442949365703
 20
54.511397502804
 30
0
 11
57.46999211516517
 21
54.11704998688612
 31
0
  0
LINE
  8
1
 62
4
 10
44.26215254523458
 20
231.4724243789
 30
0
 11
44.2974674008949
 21
231.0134668700479
 31
0
  0
LINE
  8
1
 62
4
 10
44.2974674008949
 20
231.0134668700479
 30
0
 11
44.40258054185571
 21
230.5653147066487
 31
0
  0
LINE
  8
1
 62
4
 10
44.40258054185571
 20
230.5653147066487
 30
0
 11
44.5750172645163
 21
230.1385188413452
 31
0
  0
LINE
  8
1
 62
4
 10
44.5750172645163
 20
230.1385188413452
 30
0
 11
44.81071785022914
 21
229.7431274303906
 31
0
  0
LINE
  8
1
 62
4
 10
44.81071785022914
 20
229.7431274303906
 30
0
 11
45.10413314421859
 21
229.388449267523
 31
0
  0
LINE
  8
1
 62
4
 10
45.10413314421859
 20
229.388449267523
 30
0
 11
45.44835520064743
 21
229.0828346248274
 31
0
  0
LINE
  8
1
 62
4
 10
45.44835520064743
 20
229.0828346248274
 30
0
 11
45.83527991802373
 21
228.8334786603001
 31
0
  0
LINE
  8
1
 62
4
 10
45.83527991802373
 20
228.8334786603001
 30
0
 11
46.2557978359838
 21
228.6462520205381
 31
0
  0
LINE
  8
1
 62
4
 10
46.2557978359838
 20
228.6462520205381
 30
0
 11
46.70000860147741
 21
228.5255626267139
 31
0
  0
LINE
  8
1
 62
4
 10
46.70000860147741
 20
228.5255626267139
 30
0
 11
47.15745405512709
 21
228.4742518978427
 31
0
  0
LINE
  8
1
 62
4
 10
47.15745405512709
 20
228.4742518978427
 30
0
 11
59.26215254523457
 21
228.0515465121025
 31
0
  0
LINE
  8
1
 62
4
 10
59.26215254523457
 20
228.0515465121025
 30
0
 11
59.26215254523457
 21
226.9705957460034
 31
0
  0
LINE
  8
1
 62
4
 10
59.26215254523457
 20
221.9705957460034
 30
0
 11
44.26215254523458
 21
221.9705957460034
 31
0
  0
LINE
  8
1
 62
4
 10
59.26215254523457
 20
226.9705957460034
 30
0
 11
60.51460643316985
 21
226.9705957460034
 31
0
  0
LINE
  8
1
 62
4
 10
86.26215254523312
 20
226.9705957460034
 30
0
 11
86.26215254523312
 21
221.9705957460034
 31
0
  0
LINE
  8
1
 62
4
 10
86.2621525452342
 20
57.87059574600321
 30
0
 11
75.56934346113204
 21
57.87059574600321
 31
0
  0
LINE
  8
1
 62
4
 10
86.26215254523311
 20
62.8705957460033
 30
0
 11
86.26215254523311
 21
57.87059574600321
 31
0
  0
LINE
  8
1
 62
4
 10
47.15745405512706
 20
56.36693959416404
 30
0
 11
46.70000860147738
 21
56.31562886529282
 31
0
  0
LINE
  8
1
 62
4
 10
46.70000860147738
 20
56.31562886529282
 30
0
 11
46.25579783598377
 21
56.19493947146862
 31
0
  0
LINE
  8
1
 62
4
 10
46.25579783598377
 20
56.19493947146862
 30
0
 11
45.8352799180237
 21
56.00771283170658
 31
0
  0
LINE
  8
1
 62
4
 10
45.8352799180237
 20
56.00771283170658
 30
0
 11
45.44835520064743
 21
55.7583568671793
 31
0
  0
LINE
  8
1
 62
4
 10
45.44835520064743
 20
55.7583568671793
 30
0
 11
45.10413314421865
 21
55.45274222448376
 31
0
  0
LINE
  8
1
 62
4
 10
45.10413314421865
 20
55.45274222448376
 30
0
 11
44.81071785022914
 21
55.09806406161606
 31
0
  0
LINE
  8
1
 62
4
 10
44.81071785022914
 20
55.09806406161606
 30
0
 11
44.5750172645163
 21
54.70267265066144
 31
0
  0
LINE
  8
1
 62
4
 10
44.5750172645163
 20
54.70267265066144
 30
0
 11
44.40258054185571
 21
54.27587678535799
 31
0
  0
LINE
  8
1
 62
4
 10
44.40258054185571
 20
54.27587678535799
 30
0
 11
44.2974674008949
 21
53.82772462195874
 31
0
  0
LINE
  8
1
 62
4
 10
44.2974674008949
 20
53.82772462195874
 30
0
 11
44.26215254523458
 21
53.36876711310662
 31
0
  0
LINE
  8
1
 62
4
 10
44.26215254523458
 20
62.87059574600338
 30
0
 11
59.26215254523456
 21
62.87059574600331
 31
0
  0
LINE
  8
1
 62
4
 10
59.26215254523456
 20
57.87059574600321
 30
0
 11
59.26215254523454
 21
56.78964497990417
 31
0
  0
LINE
  8
1
 62
4
 10
59.26215254523454
 20
56.78964497990417
 30
0
 11
47.15745405512706
 21
56.36693959416404
 31
0
  0
LINE
  8
1
 62
4
 10
44.26215254523458
 20
42.04629624657969
 30
0
 11
44.26215254523458
 21
34.42059574600331
 31
0
  0
LINE
  8
1
 62
4
 10
44.26215254523458
 20
34.42059574600331
 30
0
 11
36.26215254523458
 21
34.4205957460033
 31
0
  0
LINE
  8
1
 62
4
 10
36.26215254523458
 20
250.4205957460032
 30
0
 11
44.26215254523458
 21
250.4205957460034
 31
0
  0
LINE
  8
1
 62
4
 10
44.26215254523458
 20
250.4205957460034
 30
0
 11
44.26215254523458
 21
242.7948952454259
 31
0
  0
LINE
  8
1
 62
4
 10
44.26215254523458
 20
218.6705957460034
 30
0
 11
44.26215254523458
 21
66.17059574600339
 31
0
  0
LINE
  8
1
 62
4
 10
38.26215254523458
 20
66.17059574600339
 30
0
 11
38.26215254523458
 21
218.6705957460034
 31
0
  0
LINE
  8
1
 62
4
 10
86.26215254523456
 20
62.87059574600331
 30
0
 11
59.26215254523456
 21
62.87059574600331
 31
0
  0
LINE
  8
1
 62
4
 10
59.26215254523457
 20
221.9705957460034
 30
0
 11
60.48778792395684
 21
221.9705957460034
 31
0
  0
LINE
  8
1
 62
4
 10
36.26215254523458
 20
250.4205957460032
 30
0
 11
36.26215254523458
 21
242.7948952454259
 31
0
  0
LINE
  8
1
 62
4
 10
36.26215254523458
 20
42.04629624657969
 30
0
 11
36.26215254523458
 21
34.4205957460033
 31
0
  0
LINE
  8
1
 62
4
 10
75.56934346113204
 20
57.87059574600321
 30
0
 11
59.26215254523456
 21
57.87059574600321
 31
0
  0
LINE
  8
1
 62
4
 10
74.82992398127224
 20
226.9705957460034
 30
0
 11
86.26215254523424
 21
226.9705957460034
 31
0
  0
LINE
  8
1
 62
4
 10
69.2621525452346
 20
226.9705957460034
 30
0
 11
70.92018800789184
 21
226.9705957460034
 31
0
  0
LINE
  8
1
 62
4
 10
70.92018800789184
 20
226.9705957460034
 30
0
 11
74.82992398127224
 21
226.9705957460034
 31
0
  0
LINE
  8
1
 62
4
 10
72.52929856068384
 20
221.9705957460034
 30
0
 11
86.26215254523463
 21
221.9705957460034
 31
0
  0
LINE
  8
1
 62
4
 10
69.2621525452346
 20
221.9705957460034
 30
0
 11
72.52929856068384
 21
221.9705957460034
 31
0
  0
LINE
  8
1
 62
4
 10
63.2621525452346
 20
221.9705957460034
 30
0
 11
69.2621525452346
 21
221.9705957460034
 31
0
  0
LINE
  8
1
 62
4
 10
60.51460643316985
 20
226.9705957460034
 30
0
 11
63.2621525452346
 21
226.9705957460034
 31
0
  0
LINE
  8
1
 62
4
 10
60.48778792395684
 20
221.9705957460034
 30
0
 11
63.2621525452346
 21
221.9705957460034
 31
0
  0
LINE
  8
1
 62
4
 10
63.2621525452346
 20
221.9705957460034
 30
0
 11
63.2621525452346
 21
226.9705957460034
 31
0
  0
LINE
  8
1
 62
4
 10
69.2621525452346
 20
221.9705957460034
 30
0
 11
69.2621525452346
 21
226.9705957460034
 31
0
  0
ARC
  8
1
 62
4
 10
35.26215254523458
 20
65.6990228707495
 30
0
 40
3.000000000000008
 50
289.4712206344906
 51
0
  0
ARC
  8
1
 62
4
 10
35.26215254523458
 20
219.1421686212571
 30
0
 40
3
 50
0
 51
70.52877936550946
  0
POLYLINE
  8
1
 62
2
 66
1
  0
VERTEX
  8
1
 10
60.48778792395684
 20
221.9705957460034
 30
0
 42
0.001571729615498727
  0
VERTEX
  8
1
 10
60.57036576821992
 20
222.4276835535151
 30
0
 42
0.00472609842986276
  0
VERTEX
  8
1
 10
60.64704933148447
 20
222.8849963685308
 30
0
 42
0.007929202285449594
  0
VERTEX
  8
1
 10
60.71194433275199
 20
223.3427591985543
 30
0
 42
0.01117345704596135
  0
VERTEX
  8
1
 10
60.75915649102396
 20
223.8011970510896
 30
0
 42
0.01443493226441959
  0
VERTEX
  8
1
 10
60.78279152530185
 20
224.2605349336406
 30
0
 42
0.01592657184660248
  0
VERTEX
  8
1
 10
60.77839316961634
 20
224.7330016518956
 30
0
 42
0.01061998282622149
  0
VERTEX
  8
1
 10
60.74884371650089
 20
225.2059457148661
 30
0
 42
0.009621364391829623
  0
VERTEX
  8
1
 10
60.70003863385759
 20
225.6786592997852
 30
0
 42
0.004445950571009382
  0
VERTEX
  8
1
 10
60.63787338958853
 20
226.1504345838864
 30
0
 42
0.003566691728272526
  0
VERTEX
  8
1
 10
60.56824345159585
 20
226.6205637444026
 30
0
 42
0.0001351159758139579
  0
VERTEX
  8
1
 10
60.5575580966369
 20
226.6906332206959
 30
0
 42
0.0001052168044170218
  0
VERTEX
  8
1
 10
60.54684470919378
 20
226.7606606463405
 30
0
 42
7.519905998529249e-05
  0
VERTEX
  8
1
 10
60.53611029738754
 20
226.8306565339984
 30
0
 42
4.5157431241058e-05
  0
VERTEX
  8
1
 10
60.52536186933922
 20
226.900631396332
 30
0
 42
1.504460253767534e-05
  0
VERTEX
  8
1
 10
60.51460643316985
 20
226.9705957460034
 30
0
  0
SEQEND
  8
1
  0
POLYLINE
  8
1
 62
2
 66
1
  0
VERTEX
  8
1
 10
72.52929856068384
 20
221.9705957460034
 30
0
 42
0.006115345489219564
  0
VERTEX
  8
1
 10
72.83629521568348
 20
222.694048909183
 30
0
 42
0.02026470443737324
  0
VERTEX
  8
1
 10
73.08531566338246
 20
223.3792951756233
 30
0
 42
0.04646439282450581
  0
VERTEX
  8
1
 10
73.21838369648012
 20
223.9881276485855
 30
0
 42
0.1027632473355597
  0
VERTEX
  8
1
 10
73.17752310767578
 20
224.4823394313303
 30
0
 42
0.195864344311925
  0
VERTEX
  8
1
 10
72.90475768966884
 20
224.8237236271186
 30
0
 42
0.06824862608067016
  0
VERTEX
  8
1
 10
72.55069583366549
 20
224.9624987236092
 30
0
 42
0.02115648552357729
  0
VERTEX
  8
1
 10
72.11352080347355
 20
225.0488252273529
 30
0
 42
-0.009044706010649096
  0
VERTEX
  8
1
 10
71.65760158402688
 20
225.1274467540416
 30
0
 42
-0.04597051165298965
  0
VERTEX
  8
1
 10
71.24730716025935
 20
225.2431069193672
 30
0
 42
-0.1150809048981754
  0
VERTEX
  8
1
 10
70.94700651710484
 20
225.4405493390216
 30
0
 42
-0.1057422227022125
  0
VERTEX
  8
1
 10
70.82534836888573
 20
225.6621698694125
 30
0
 42
-0.06646634461632689
  0
VERTEX
  8
1
 10
70.78121985158428
 20
225.9400495671404
 30
0
 42
-0.03660535303215656
  0
VERTEX
  8
1
 10
70.79523855747111
 20
226.260123640371
 30
0
 42
-0.01816637867911873
  0
VERTEX
  8
1
 10
70.84802207881675
 20
226.6083272972701
 30
0
 42
-0.005502939977328492
  0
VERTEX
  8
1
 10
70.92018800789184
 20
226.9705957460034
 30
0
  0
SEQEND
  8
1
  0
ENDBLK
  8
0
  0
BLOCK
  8
0
  2
4027733_BOLZEN__2
 70
0
 10
298.4352369829438
 20
120.3218786886472
 30
0
  0
LINE
  8
1
 62
4
 10
69.26215254523458
 20
57.37059574600304
 30
0
 11
69.26215254523458
 21
57.87059574600321
 31
0
  0
LINE
  8
1
 62
4
 10
68.76215254523458
 20
56.87059574600304
 30
0
 11
63.76215254523458
 21
56.87059574600304
 31
0
  0
LINE
  8
1
 62
4
 10
63.26215254523458
 20
57.37059574600304
 30
0
 11
63.26215254523458
 21
57.87059574600321
 31
0
  0
LINE
  8
1
 62
4
 10
61.26215254523458
 20
62.87059574600305
 30
0
 11
71.26215254523458
 21
62.87059574600305
 31
0
  0
LINE
  8
1
 62
2
  6
DASHDOT
 10
66.26215254523458
 20
67.32059574600302
 30
0
 11
66.26215254523458
 21
55.92059574600305
 31
0
  0
LINE
  8
1
 62
4
 10
63.76215254523458
 20
56.87059574600304
 30
0
 11
63.26215254523458
 21
57.37059574600304
 31
0
  0
LINE
  8
1
 62
4
 10
68.76215254523458
 20
56.87059574600304
 30
0
 11
69.26215254523458
 21
57.37059574600304
 31
0
  0
LINE
  8
1
 62
4
 10
69.26215254523458
 20
57.37059574600304
 30
0
 11
63.26215254523458
 21
57.37059574600304
 31
0
  0
LINE
  8
1
 62
4
 10
71.26215254523458
 20
62.87059574600305
 30
0
 11
71.26215254523458
 21
66.07059574600305
 31
0
  0
LINE
  8
1
 62
4
 10
61.26215254523458
 20
62.87059574600305
 30
0
 11
61.26215254523458
 21
66.07059574600305
 31
0
  0
LINE
  8
1
 62
4
 10
70.96215254523463
 20
66.37059574600303
 30
0
 11
71.26215254523458
 21
66.07059574600305
 31
0
  0
LINE
  8
1
 62
4
 10
70.96215254523463
 20
66.37059574600303
 30
0
 11
61.5621525452346
 21
66.37059574600303
 31
0
  0
LINE
  8
1
 62
4
 10
61.26215254523458
 20
66.07059574600305
 30
0
 11
61.5621525452346
 21
66.37059574600303
 31
0
  0
LINE
  8
1
 62
4
 10
71.26215254523458
 20
66.07059574600305
 30
0
 11
61.26215254523458
 21
66.07059574600305
 31
0
  0
ENDBLK
  8
0
  0
ENDSEC
  0
SECTION
  2
ENTITIES
  0
LINE
  8
1
 62
2
 10
60.02031864381583
 20
204.7029934624636
 30
0
 11
66.2621525452346
 21
220.4937211550876
 31
0
  0
CIRCLE
  8
1
 62
2
 10
66.2621525452346
 20
220.4937211550876
 30
0
 40
0.875
  0
LINE
  8
1
 62
2
 10
16.39120333430583
 20
203.1876118902945
 30
0
 11
39.59364186188282
 21
226.6963532367176
 31
0
  0
CIRCLE
  8
1
 62
2
 10
39.59364186188282
 20
226.6963532367176
 30
0
 40
0.875
  0
TEXT
  8
1
 62
4
 10
55.76757163241786
 20
197.4426225885525
 30
0
 40
5
  1
10
 41
0.7
  0
TEXT
  8
1
 62
4
 10
9.494964800619623
 20
197.6338818811154
 30
0
 40
5
  1
30
 41
0.7
  0
TEXT
  8
1
 62
2
 10
63.4518228426719
 20
197.4952274337559
 30
0
 40
2.5
  1
eingepresst
 41
0.7
  0
TEXT
  8
SCHRIFTFELD
 62
2
 10
-42.6751928401126
 20
-28.25886789320199
 30
0
 40
2.5
  1
2 015 563
 50
90
 41
0.7
 73
2
 11
-43.9251928401126
 21
-28.25886789320199
 31
0
  0
INSERT
  8
0
  2
_DINA4_K
 10
43.575
 20
115.241
 30
0
  0
INSERT
  8
0
  2
4027733_BOLZEN__1
 10
298.4352369829438
 20
164.5193128033592
 30
0
  0
INSERT
  8
0
  2
9040122__4027732__HALTERUNG_TEI
 10
27.37469538099583
 20
99.40689057225208
 30
0
  0
INSERT
  8
0
  2
4027733_BOLZEN__2
 10
298.4352369829438
 20
120.3218786886472
 30
0
  0
ENDSEC
  0
EOF
